Oops, an error
Loading. Please wait.

So Damn Lucky Tab

version 3
version 3

Whole song

Interactive

2,276 views 6 this week
no commentswrite comment
1 2 3 4 5
x 3
add to favorites
launch autoscroll
font size
0
reset
how to read this tab
guitar tuner
Autoscroll
slow
fast
+/-
esc
set tempo
stop
Help us to improve Ultimate-Guitar.com Take our survey!
×
Author
-------------------------------------------------------------------------------
                             So Damn Lucky Sessions@AOL - Dave Matthews
-------------------------------------------------------------------------------
Tabbed by: Jagal
Email:

Tuning: Standard

Verse:

You have to figure out the strumming patter but I think that isn't too hard. 
Just before the refrain play the D/F# chord
e|--------------------------------------------------------------------------|
B|---------------------------------------------3----------------------------|
G|---9h11--11------9h11--11--------------------2----------------------------|
D|---9-----9-------9h11--11------etc----------0-----------------------------|
A|---9h11--11------0-0---0--------------------------------------------------|
E|---0-----0-----------------------------------2----------------------------|

Refrain:

Again you have to figure out the strumming...

Play it 2x but second time without the last em. Instead go right back to vers.
(Except before the I'm dizzy from all that spinning part. There let the em ring...)

e|-------------------------------------0------------------------------------|
B|-------------------------------------0-------------------------------------
G|--7------6------4------4------2------0------------------------------------|
D|--0------0------0------0------0------2------------------------------------|
A|-------------------------------------2------------------------------------|
E|--7------5------3------3------2------0------------------------------------|

e|---------------------------------0----------------------------------------|
B|---------3------1------1---------0----------------------------------------|
G|-----------------------2---------0----------------------------------------|
D|--6------4------2------2---------2----------------------------------------|
A|--7------5------3------0---------2----------------------------------------|
E|---------------------------------0----------------------------------------|

That's it I guess. Listen to the song for the strumming...

************************************

| /   slide up
| \   slide down
| h   hammer-on
| p   pull-off
| ~   vibrato
| +   harmonic
| x   Mute note
| b   Bend
| pb  Pre-bend
| br  Bend release
| pbr Pre-bend release
| brb Bend release bend

************************************
Suggest correction
Give kudos to tab author, rate the tab!
1 2 3 4 5
comments
print report bad tab
guest
You may want to rate the tab now too:
select rating
Wanna post a correction for this tab? Suggest correction