Oops, an error
Loading. Please wait.

So Much To Say Tab

version 1
version 1

Whole song

Interactive

Video

42,253 views 33 this week
1 commentread comment
1 2 3 4 5
x 5
add to favorites
launch autoscroll
font size
0
reset
how to read this tab
guitar tuner
×
Best way to learn
"So Much To Say"
Autoscroll
slow
fast
+/-
esc
set tempo
stop
Date: Mon, 17 Jul 2000 02:29:44 -0400
From: "Scott Taylor" 
Subject: m/matthews_dave_band/so_much_to_say.tab
"So Much To Say"
from Dave Matthews Band
Crash

[Intro]
  (play this bar 4x's)
e|----5--------------|
B|----5--------------|
G|----5-~6-----------|
D|---------7---------|
A|-------------------|
E|~5---------0--7~---|

[Verse 1]
I say my hell is the closet.........

[Figure 1]
e|-----5--------------| |----------------|
B|-----5--------------| |------------(harm)
G|-----5-~6-----------| |----10--------7-|
D|----------7-------5-| |-----7------7---|
A|----------------3---| |----------5-----|
E|~5-----------1------| |~10-----3-------|
                                     
e|----5--------------|
B|----5--------------|
G|----5-~6-----------| repeat this bar
D|---------7---------|
A|-------------------|
E|~5---------0--7~---|

[Figure 1 - 3 times, then]
[Figure 1 - 2 times w/]
[Figure 2 - 2 times]
[Tim - electric]

e|-------------- --------- ---------------- -----------|
B|-------------- --------- ---------------- -----------|
G|-5--6--------- --5-7---- --5--6---------- --5--6-----|
D|-5--5--7-5-7-- --5-7---- --5--5--7-5--7-- --5--5-----|
A|-------------- --------- ---------------- --------12~|
E|-------------- --------- ---------------- -----------|
.....a little baby.

[Chorus]
Cause here we have been standin for a long.......

[Figures 1 and 2 - 2 times]

[Verse 2]
I say my hell........

[Figure 1 and 2 - 2 times]

[Chorus]
Cause here we have been standin for a long.......

[Figures 1 and 2 - 2 times]

[Bridge]
I find, sometines it's easy to be myself.......

  funky strumming and muting
e|-5--- -10--- -3--- -10---|
B|-5--- -10--- -3--- -10---|
G|-6--- -11--- -4--- -11---|
D|-7--- -12--- -5--- -12---|
A|-7--- -12--- -5--- -12---|
E|-5--- -10--- -3--- -10---|
repeat last 4 bars
last 2 bars of Figures 1 and 2

[Verse 3]
I see you young and soft......

[Figure 1 and 2 - 4 times]

[Chorus and Bridge - play like before, then]
So much to say, so much to say..........

[Figure 1 and 2 - 4 times]
Open up my head and let me out........

e|---------------|
B|---------------|
G|---------------|
D|-7-------------|
A|---------------|
E|-5-------------|

   ......little baby.
e|------- --------------|
B|------- --------------|
G|------- --------------|
D|------- --------------|
A|------- --------------|
E|---12-- -5------------|
  harm

************************************

| ~  Vibrato
  

************************************
Suggest correction
comments
print report bad tab
1 comment total.
0 reply
Mace_37 40 Jul 21, 2005 08:00 PM

like your face

guest
You may want to rate the tab now too:
select rating
Wanna post a correction for this tab? Suggest correction