Oops, an error
Loading. Please wait.

So Much To Say Bass Tab

version 2
version 2

Whole song

Interactive

3,314 views 6 this week
no commentswrite comment
1 2 3 4 5
please rate
add to favorites
launch autoscroll
font size
0
reset
guitar tuner
Tab Pro tools
  • play this tab
  • loop segment
  • change instrument
  • show fretboard
  • metronome
Autoscroll
slow
fast
+/-
esc
set tempo
stop
Difficulty
intermediate
-------------------------------------------------------------------------------
		   So Much To Say - Dave Matthews Band
-------------------------------------------------------------------------------

Tabbed By : cooldudekevin
Tuning:standard

Simplified version, not exactly whats played on the album but its much better than the 
tab.

Intro into first verse:
G|-------------|
D|-------------|
A|-------------|
E|-2-3-4-------|


Verse/Chorus:

G|---5h6--------12--------------5h6-----5/9-5h6----|
D|-------7---10----------7p5--------7-----------7--|
A|-0-------8-------5---5--------------0------------|
E|-------------------3-------5---------------------|

this part is repeated most of the song.

Bridge(play twice):

G|---------------------------------------------------------------------------|
D|------------------------------------3h4h5-5-5-5-5-5-5----------------------|
A|-------------------3h4h5-5-5-5-5-5-5------------------3h4h5-5-5-5-5-5-5----|
E|-3h4h5-5-5-5-5-5-5---------------------------------------------------------|

The rhythm for this part is harder. Pretty much just use this form to change through chords.
when going back into the verse/chorus play this part:

G|----5h6-----5/9-5h6----|
D|-------7-----------7---|
A|---------0-------------|
E|--5--------------------|

Thats pretty much it. This song should really be more about improv then getting the 
bassline down. Feel free to change it as much as you like.


| /  slide up
| \  slide down
| h  hammer-on
| p  pull-off
| ~  vibrato
| +  harmonic
| x  Mute note
===============================================================================
comments
We did not receive enough feedback on this tab! Please rate:
print report bad tab
1 2 3 4 5
I want to post or [tab]
guest
You may want to rate the tab now too:
select rating
Please do not post tabs as comments. Select "correction" instead!