Oops, an error
Loading. Please wait.

So Much To Say Tab

version 4
version 4

Whole song

Interactive

Video

27,250 views 51 this week
no commentswrite comment
1 2 3 4 5
3 more votes to show rating
add to favorites
launch autoscroll
font size
0
reset
how to read this tab
guitar tuner
Autoscroll
slow
fast
+/-
esc
set tempo
stop
Help us to improve Ultimate-Guitar.com Take our survey!
×
Author
Difficulty
intermediate
INTRO
E-------5---------------------------5-------------------------------------|
B-------5---------------------------5-------------------------------------|
G-------5---------------------------5-------------------------------------|
D---------4/6-------------------------4-6---------------------------------|
A-------------7----------------------------7------------------------------|
E-3/5------------0----7\0---0/5---------------0--7\0----------------------|

VERSE
E-------5-----------------------------------------------------------------|
B-------5-----------------------------------------------------------------|
G-------5-------------------------------10-----------------7--------------|
D---------4/6-----------5------------------------------7------------------|
A-------------7-----3-------------------7---------5-----------------------|
E-3/5------------1---------0/10---------------3---------------------------|

occasionally add this
E-------------------------------------------------------------------------|
B-------------------------------------------------------------------------|
G----------5--7-----------------------------------------------------------|
D----------6--7--------7-----5----7---------------------------------------|
A-------------------------------------------------------------------------|
E-------------------------------------------------------------------------|

Bridge
A     D    G        D
Sometimes I find it easy to be myself
A     D    G        D
SOmetimes I find it better to be somebody else

Then when Dave repeats "So much to say" play the verse and at the end add:
E-----------------------------|
B-----------------------------|
G-14-12-----------------------|
D-------14-12-----------------|
A--------------15--12---------|
E-----------------------------|

Great song to play acoustically.
Suggest correction
Give kudos to tab author, rate the tab!
1 2 3 4 5
comments
print report bad tab
guest
You may want to rate the tab now too:
select rating
Wanna post a correction for this tab? Suggest correction