Oops, an error
Loading. Please wait.

So Much To Say Tab

version 5
version 5

Whole song

Interactive

Video

2,053 views 1 this week
1 commentread comment
1 2 3 4 5
2 more votes to show rating
add to favorites
launch autoscroll
font size
0
reset
how to read this tab
guitar tuner
Autoscroll
slow
fast
+/-
esc
set tempo
stop
Help us to improve Ultimate-Guitar.com Take our survey!
×
Author
Difficulty
intermediate
This was done from the Live in Chicago 12-19-98 version (my favorite), but I listen to 
Central Park Concert version a lot too.

I think this is closer than some of the other tabs, at least for playing it acoustically 
still maybe not perfect). Btw, this is my 1st time to submit a tab, even tough I’ve 
a lot of stuff.

I play this acoustically btw (though there's a lotta bass, electric, etc).

INTRO
   G/A   A A  A  A  A  A  G   G  G/A  A A  A  A  A  A  G
   ^ ^   ^ ^  ^  ^  ^  ^  ^   ^  ^ ^  ^ ^  ^  ^  ^  ^  ^
E--3/5---5-5---------------3--3--3/5--5-5--------------3--|
B--3/5---5-5---------------3--3--3/5--5-5--------------3--|
G--4/6---6-6--6--5---------4--4--4/6--6-6--6--5--------4--|
D--5/7---7-7--------7--7---5--5--5/7--7-7--------7--7--5--|
A--5/7---7-7---------------5--5--5/7--7-7--------------5--|
E--3/5---5-5---------------3---3--3/5--5-5-------------3--|

E--3--3/5---5-5--------------3--3--3/5--5-5--------------3--|
B--3--3/5---5-5--------------3--3--3/5--5-5--------------3--|
G--4--4/6---6-6--6--5--------4--4--4/6--6-6--6--5--------4--|
D--5--5/7---7-7--------7--7--5--5--5/7--7-7--------7--7--5--|
A--5--5/7---7-7--------------5--5--5/7--7-7--------------5--|
E--3--3/5---5-5--------------3--3--3/5--5-5--------------3--|

VERSE
E--3/5---5-5-------------1--1-1--1/3--3--3-3--3--------|
B--3/5---5-5-------------1--1-1--1/3--3--3-3--5--------|
G--4/6---6-6--6--5-------2--2-2--2/4--4--4-4--5--------|
D--5/7---7-7--------7----3--3-3--3/5--5--5-5--5--------|
A--5/7---7-7-------------3--3-3--3/5--5--5-5--3--------|
E--3/5---5-5-------------1--1-1--3/5--3--3-3--x--------|

E--3-3/5--5-5--------------3---3-3/5--5-5--------------3-----|
B--3-3/5--5-5--------------3---3-3/5--5-5--------------3-----|
G--4-4/6--6-6--6--5--------4---4-4/6--6-6--6--5--------4-----|
D--5-5/7--7-7--------7--7--5---5-5/7--7-7--------7--7--5-----|
A--5-5/7--7-7--------------5---5-5/7--7-7--------------5-----|
E--3-3/5--5-5--------------3---3-3/5--5-5--------------3-----|

When you slide from F to G in the verse, make sure that you emphasize the bass strings 
A, D) - you don’t even have to play G, B, and little E.

BRIDGE
A    D   G              C            A
   I find  sometimes it easy to be myself
     D         G          C                     REPEAT VERSE'S TAB
Sometimes, yea, I find it better to be somebody else

You can slide from G to A (G/A) at the beginning of the bridge if you want.

After Dave skats, and the rest of the band plays a bit, another guitar part comes in:
- This is the E on the 12th fret:
E E E D/D#/E  E E  D/D#/E  F E D E F E D/D#/E E E E......
(i dunno how to transcribe the strumming that well, but it’s not if you just listen to it)

CHORDS:

INTRO
G/A    A    G     x4

VERSE
G/A    A         F    F/G     G     C
           I see my hell is the closet I’m stuck inside
G   G/A  A   G  G/A  A  G

I'm always eager to learn, so please send me any corrections you that need to be made to 
at raincasterman@yahoo.com. Thanks!

Your neighborhood friendly Chococolateman
Suggest correction
Give kudos to tab author, rate the tab!
1 2 3 4 5
comments
print report bad tab
1 comment total.
0 reply
G5Man 10 May 03, 2008 04:48 PM

I know you took the effort and all...but sorry man this isn't even close. :s

guest
You may want to rate the tab now too:
select rating
Wanna post a correction for this tab? Suggest correction