Oops, an error
Loading. Please wait.

Spaceman bass

1,434 views 1 this week
no commentswrite comment
1 2 3 4 5
1 last vote to show rating
add to favorites
×
Save as Personal and add changes to this tab that will be seen only by you. Learn more ›
×
You can save this tab as Personal to edit and correct it or add notes. All changes will be seen only by you. Learn more »
launch autoscroll
font size
0
reset
guitar tuner
edit
Autoscroll
slow
fast
+/-
esc
set tempo
stop
Difficulty
Song: Spaceman
Artist: Dave Matthews Band
Album: Big Whiskey and the Groogrux King
Tabbed by Philip

A simple but yet fun song to play. Theres a lot of room for improvisation.

| h  hammer-on
| p  pull-off

Intro:

G|-------------------|-------------------|
D|-------------------|-------------------|
A|-------------------|-------------------|
E|--2----------------|--2----------------|


Vers:

G|-------7h9---------|--77-6-------------|
D|---7-9-------------|-------7p5---------|
A|-------------------|-------------------|
E|-2-----------------|-------------------|

This is the basics of the vers-riff. Lessard does a lot of improvisation. One live 
differs from another. He’s pretty great!
So just fool around with this!

Pre-chours:

  Chords:  |  F   G   A   (A)  |

G|-------------------|---------------14)-|
D|------3-----5------|------7-----14-----|
A|----3-----5--------|----7---(12--------|
E|--1-----3----------|--5----------------|

Just play arpeggios (broken chords).

Chorus:

 |  D  A  Bm G  |


G|------7---------------------------12------|
D|----7---7-----7--------9-------12----12---|
A|--5---------7---7----9---9--10------------|
E|----------5--------7----------------------|

|  D  A  C |


G|------7----------------------------|
D|----7---7-----7--------------------|
A|--5---------7---7--3-33/151515-----|
E|----------5------------------------|

|  F   G   A   (A)  |

G|-------------------|---------------14)-|
D|------3-----5------|------7-----14-----|
A|----3-----5--------|----7---(12--------|
E|--1-----3----------|--5----------------|

(Last part is obviously the same as the pre-chorus.)

The unison little lick at the very end of the song goes like this:

G|----------------------|
D|--9-7--------------7--|
A|------10-9-10-9-10----|
E|----------------------|

Enjoy!

            
            
Suggest correction
Creating personal tab
Creating personal tab
You can edit any tab online and save it as your Personal.

You can edit, replace or remove any tab part or add personal notes – all changes will be seen only by you.

Personal tabs can be accessed anytime from any device, even offline.
Learn more »
Give kudos to tab author, rate the tab!
1 2 3 4 5
comments
print report bad tab
guest
Wanna post a correction for this tab? Suggest correction