Oops, an error
Loading. Please wait.

Spaceman Acoustic tab

version 3
version 3

Whole song

1,604 views 1 this week
no commentswrite comment
1 2 3 4 5
2 more votes to show rating
add to favorites
×
Save as Personal and add changes to this tab that will be seen only by you. Learn more ›
×
You can save this tab as Personal to edit and correct it or add notes. All changes will be seen only by you. Learn more »
launch autoscroll
font size
0
reset
how to read this tab
guitar tuner
edit
Autoscroll
slow
fast
+/-
esc
set tempo
stop
Author
Difficulty
Dave Matthews Band - Spaceman

This is my first post and since I use this website all the time i figured
I would give back to the community by tabbing this for everyone.
Dave Matthews Band is my favorite band so it is great to get the right
tabs up for this song.

This is the version off of Dave and Tim Live in Las Vegas Double Down played
on 12.10.09 at Planet Hollywood Resort & Casino.
I wanted to post an accurate version of the song since there was only one
post for this song and it is easier to hear what is being played when it
is just Dave and Tim. I just learned this by ear and finally got all the
notes that he is hitting. Once you get the technique down while you are
listening to it on the album, you will see that the tab is accurate.


Intro:

/=slide
PM= palm mute

Tim is playing something else in the background while Dave starts playing
what is tabbed below.  When you get to the part where you slide from the
2/6 and 2/5 together, don't hit the strings with the pick, just let the
notes slide up and you will get the right sound.

e----------------------------------------------------------------|
B----------------------------------------------------------------|
G-6-6-6-6--6-6----6-6-6-6--6-6---------2--2/6----6---------------|
D----------------------------------------------------------------|
A----------------------------------------------------------------|
E--------------------------------5\2-2----2/5--5-----------------|
 PM...........................


e-----------------------------------------------------------------------|
B-----------------------------------------------------------------------|
G-6-6-6-6--6-6----6-6-6-6--6-6-----2--2/6----6----7----4-------2---0----|
D-----------------------------------------------------------------------|
A-----------------------------------------------------------------------|
E--------------------------------2----2/5--5--------7----3-------2---2--|
 PM...........................


Verse:

So now it just goes into the main riff which is the same as above except
without the repeated note in the beginning.

e-----------------------------------------------------------------------|
B-----------------------------------------------------------------------|
G----2--2/6----6----7----4-------2---0---------------------------------.|
D----------------------------------------------------------------------.|
A-----------------------------------------------------------------------|
E--2----2/5--5--------7----3-------2------------------------------------|

then the bridge: yeah, ah, ah, yeah

    F        G        A
e---------------------------------------------------------------------|
B---------------------------------------------------------------------|
G---x---2-x-2--x---4-x-4--x---6-x-6-----------------------------------|
D---x---x-x-x--x---x-x-x--x---x-x-x-----------------------------------|
A---x---x-x-x--x---2-x-2--x---4-x-4-----------------------------------|
E---x-1-1-x-1--x-3-3-x-3--x-5-5-x-5-----------------------------------|

repeat 3 times then go to chorus

Chorus:


    D  A  Bm G       D  A  C    D   A  Bm  G     F   G
e---2-----2--3-------2-----3----2------2---3-----1---3-----------------|
B---3--2--3--3-------3--2--3----3---2--3---3-----1---3-----------------|
G---2--2--4--0-------2--2--0----2---2--4---0-----2---0-----------------|
D---0--2--4--0-------0--2--2----0---2--4---0-----3---0-----------------|
A------0--2--2----------0--3--------0--2---2-----3---2-----------------|
E------------3-----------------------------3-----1---3-----------------|

after the last chord on the chorus, quickly go back into the verse riff
because as soon as he says, "i love the way you move" when he gets
to "love" is when you start playing the verse riff again. I hope you found
it helpful. If there are any questions or corrections, let me know. Thx!

            
            
Suggest correction
Creating personal tab
Creating personal tab
You can edit any tab online and save it as your Personal.

You can edit, replace or remove any tab part or add personal notes – all changes will be seen only by you.

Personal tabs can be accessed anytime from any device, even offline.
Learn more »
Give kudos to tab author, rate the tab!
1 2 3 4 5
comments
print report bad tab
guest
You may want to rate the tab now too:
select rating
Wanna post a correction for this tab? Suggest correction