Oops, an error
Loading. Please wait.

Warehouse Chords

version 1
version 1

Whole song

  • Only one i found with chords for this.

Interactive

19 views 3 this week
no commentswrite comment
1 2 3 4 5
2 more votes to show rating
add to favorites
launch autoscroll
font size
0
reset
transpose
0
reset
simplify chords
display chords
guitar tuner
Autoscroll
slow
fast
+/-
esc
set tempo
stop
Help us to improve Ultimate-Guitar.com Take our survey!
×
Author
About this tab version
Only one i found with chords for this. Was this info helpful? Yes No
DAVE MATTHEWS BAND WAREHOUSE 


[Intro/Verse]

Dave drones the B string here...and live there's a lot of muting -
So try and use your first finger for the B note and muting, and
use the other fingers for other fretted notes.

e|----------------------------------------------|
B|---0-0-0-0--0--0--0--0-0-0--0--0-0-0-0-0------|
G|---x-x-x-x--x--x--x--x-x-x--x--x-x-x-x-x------|
D|---x-x-x-x-11-11-12-12-9-9--x--x-x-x-x-x------|
A|---x-x-9-9-----------------10-10-9-9-x-x------|
E|---7-7----------------------------------------|
                                                                       
e|----------------------------------------------|
B|---0-0-0-0--0--0--0--0-0-0--0--0-0-0-0-0------|
G|---x-x-x-x--x--x--x--x-x-x--x--x-x-x-x-x------|
D|---x-x-x-x-11-11-12-12-9-9--x--x-x-x-x-x------|
A|---x-x-9-9-----------------10-10-9-9-7-7------|
E|---7-7----------------------------------------|

See I'm leaving
This warehouse frightens me
Has me tied up in knots
Can't rest for a moment
Soon I'm going I'm slippin' slow away
Hoping to find something better than I've got inside of here
The warehouse slips away


Fill when band comes in

     G   F#  E   D    C#    A   B                         
e|----------------------------------|
B|----------------------------------|
G|----------------------------------|
D|---5---4---2---7----6-----7---9---|
A|---------------5----4-------------|
E|---3---2---0--------------5---7---|


Back to Verse

e|----------------------------------------------|
B|---0-0-0-0--0--0--0--0-0-0--0--0-0-0-0-0------|
G|---x-x-x-x--x--x--x--x-x-x--x--x-x-x-x-x------|
D|---x-x-x-x-11-11-12-12-9-9--x--x-x-x-x-x------|
A|---x-x-9-9-----------------10-10-9-9-x-x------|
E|---7-7----------------------------------------|
                                                                       
e|----------------------------------------------|
B|---0-0-0-0--0--0--0--0-0-0--0--0-0-0-0-0------|
G|---x-x-x-x--x--x--x--x-x-x--x--x-x-x-x-x------|
D|---x-x-x-x-11-11-12-12-9-9--x--x-x-x-x-x------|
A|---x-x-9-9-----------------10-10-9-9-7-7------|
E|---7-7----------------------------------------|


Hey reckless mind
Don't throw away your playful beginnings
You and I will fumble around in the touches
And be sure to...



[Pre-Chorus]

     A       D        G    D/B                                         
             
e|-----------2--2-----3----2------|
B|---2--2-2--3--3-----3----3------|
G|---2--2-2--2--2-----0----2------|
D|---2--2-2--0--0-----0----0------|
A|---0--0-0-----------2----2----0-|
E|--------------------3-----------|
                                                                       
       

Leave all the lights on
So we can see the black cat changing colors
And we can walk under ladders
And swim as the tide turns you around


BACK TO VERSE

e|----------------------------------------------|
B|---0-0-0-0--0--0--0--0-0-0--0--0-0-0-0-0------|
G|---x-x-x-x--x--x--x--x-x-x--x--x-x-x-x-x------|
D|---x-x-x-x-11-11-12-12-9-9--x--x-x-x-x-x------|
A|---x-x-9-9-----------------10-10-9-9-x-x------|
E|---7-7----------------------------------------|
                                                                       
       

e|----------------------------------------------|
B|---0-0-0-0--0--0--0--0-0-0--0--0-0-0-0-0------|
G|---x-x-x-x--x--x--x--x-x-x--x--x-x-x-x-x------|
D|---x-x-x-x-11-11-12-12-9-9--x--x-x-x-x-x------|
A|---x-x-9-9-----------------10-10-9-9-7-7------|
E|---7-7----------------------------------------|


Hey we have found
Becoming one in a million
Slip in to the crowd
This question I found in a gap in the sidewalk


[Pre-Chorus]

     A       D        G    D/B                                         
             
e|-----------2--2-----3----2------|
B|---2--2-2--3--3-----3----3------|
G|---2--2-2--2--2-----0----2------|
D|---2--2-2--0--0-----0----0------|
A|---0--0-0-----------2----2----0-|
E|--------------------3-----------|
                                                                       
       

Keep all your sights on
Hey the black cat changing colors
And you can walk under ladders
And swim as the tide choose to turn you



[Chorus]

         MAIN CHORDS                    fills (improvise)   
     B     E      F#     E       B        E F#  E 
                                                                     
e|---2-----0------2------0--|---11---------------------------|
B|---4-----0------2------0--|---12------12------14------12---|
G|---4-----1------3------1--|-----------13------15------13---|
D|---4-----2------4------2--|--------------------------------|
A|--2------2------4------2--|--------------------------------|
E|-------0------2------0----|--------------------------------|


And here I sit
Life goes on, end of tunnel
TV set
Spot in the middle
Static fade, statistical bit
And soon I'll fade aw-

     G                      A 
                                                                       
                        
e|---3----3-3-3-3-3-3-3-3---0---0-0-0-0-0-0-0-0---|
B|---3----3-3-3-3-3-3-3-3---2---2-2-2-2-2-2-2-2---|
G|---0----0-0-0-0-0-0-0-0---2---2-2-2-2-2-2-2-2---|
D|---0----0-0-0-0-0-0-0-0---2---2-2-2-2-2-2-2-2---|
A|---2----2-2-2-2-2-2-2-2---0---0-0-0-0-0-0-0-0---|
E|---3----3-3-3-3-3-3-3-3-------------------------|


-ay
I'll fade away


     B     E      F#     E       B        E F#  E 
                                                                     
e|---2-----0------2------0--|---11---------------------------|
B|---4-----0------2------0--|---12------12------14------12---|
G|---4-----1------3------1--|-----------13------15------13---|
D|---4-----2------4------2--|--------------------------------|
A|--2------2------4------2--|--------------------------------|
E|-------0------2------0----|--------------------------------|


This I admit
Taste so good, hard to believe and end to it
Smell touch feel
How could this rhythm ever quit
Bags packed on a


     G                      A 
e|---3----3-3-3-3-3-3-3-3---0---0-0-0-0-0-0-0-0---|
B|---3----0-0-0-0-0-0-0-0---2---2-2-2-2-2-2-2-2---|
G|---0----0-0-0-0-0-0-0-0---2---2-2-2-2-2-2-2-2---|
D|---0----0-0-0-0-0-0-0-0---2---2-2-2-2-2-2-2-2---|
A|---2----2-2-2-2-2-2-2-2---0---0-0-0-0-0-0-0-0---|
E|---3----3-3-3-3-3-3-3-3-------------------------|

plane
Hopefully to heaven

Back to Verse
                                                                       
e|----------------------------------------------|
B|---0-0-0-0--0--0--0--0-0-0--0--0-0-0-0-0------|
G|---x-x-x-x--x--x--x--x-x-x--x--x-x-x-x-x------|
D|---x-x-x-x-11-11-12-12-9-9--x--x-x-x-x-x------|
A|---x-x-9-9-----------------10-10-9-9-x-x------|
E|---7-7----------------------------------------|
                                                                       
e|----------------------------------------------|
B|---0-0-0-0--0--0--0--0-0-0--0--0-0-0-0-0------|
G|---x-x-x-x--x--x--x--x-x-x--x--x-x-x-x-x------|
D|---x-x-x-x-11-11-12-12-9-9--x--x-x-x-x-x------|
A|---x-x-9-9-----------------10-10-9-9-7-7------|
E|---7-7----------------------------------------|

Shut up I'm thinking
I had a clue now it's gone forever
Sitting over these bones
You can read in whatever your needing to


[Pre-Chorus]

     A       D      G    D/B                                           
           
e|-----0-------2----------2------|
B|-----2-------3-----3----3------|
G|-----2-------2-----0----2------|
D|---2-------0-------0----0------|
A|---0-------------2----2------0-|
E|-----------------3-------------|
                                                                       
       

Keep all you sights on, 
Yeah man the black cat changing colors
When it's not the colors that matter
But that they all fade away

[Chorus]

     B     E      F#     E       B        E F#  E 
                                                                     
e|---2-----0------2------0--|---11---------------------------|
B|---4-----0------2------0--|---12------12------14------12---|
G|---4-----1------3------1--|-----------13------15------13---|
D|---4-----2------4------2--|--------------------------------|
A|--2------2------4------2--|--------------------------------|
E|-------0------2------0----|--------------------------------|


Life goes on, end of tunnel
TV set
Spot in the middle
Static fade, statistical bit
Soon I'll...

     G                      A 

e|---3----3-3-3-3-3-3-3-3---0---0-0-0-0-0-0-0-0---|
B|---3----3-3-3-3-3-3-3-3---2---2-2-2-2-2-2-2-2---|
G|---0----0-0-0-0-0-0-0-0---2---2-2-2-2-2-2-2-2---|
D|---0----0-0-0-0-0-0-0-0---2---2-2-2-2-2-2-2-2---|
A|---2----2-2-2-2-2-2-2-2---0---0-0-0-0-0-0-0-0---|
E|---3----3-3-3-3-3-3-3-3-------------------------|


Fade away,
I'll fade away

     B     E      F#     E       B        E     F#  E 
                                                                     
e|---2-----0------2------0--|---11---------------------------|
B|---4-----0------2------0--|---12------12------14------12---|
G|---4-----1------3------1--|-----------13------15------13---|
D|---4-----2------4------2--|--------------------------------|
A|--2------2------4------2--|--------------------------------|
E|-------0------2------0----|--------------------------------|

This I admit
Seems so good
Hard to belive and end to it
Warehouse is bare
Nothing at all inside of it
The walls and halls have


     G                      A 
                                                                       
e|---3----3-3-3-3-3-3-3-3---0---0-0-0-0-0-0-0-0---|
B|---3----3-3-3-3-3-3-3-3---2---2-2-2-2-2-2-2-2---|
G|---0----0-0-0-0-0-0-0-0---2---2-2-2-2-2-2-2-2---|
D|---0----0-0-0-0-0-0-0-0---2---2-2-2-2-2-2-2-2---|
A|---2----2-2-2-2-2-2-2-2---0---0-0-0-0-0-0-0-0---|
E|---3----3-3-3-3-3-3-3-3-------------------------|

disappeared
They disappear


     B     E      F#     E       B       E      F#  E 
                                                                      
e|---2-----0------2------0--|---11---------------------------|
B|---4-----0------2------0--|---12------12------14------12---|
G|---4-----1------3------1--|-----------13------15------13---|
D|---4-----2------4------2--|--------------------------------|
A|--2------2------4------2--|--------------------------------|
E|-------0------2------0----|--------------------------------|


My love I love to stay here
My love I love to stay here
In a corner I was wondering
If a change could be better than this
And then I worry
Maybe things won't be better than they have been
Here at the warehouse
At the warehouse
At the warehouse
How I love to stay here
At the warehouse
Every man and woman
Get alive

[Sax Solo]
(continue CHORUS progression)

That's our blood down there
Seems poured from the hands of angels
But trickle into the ground
Leaves the warehouse bare and empty
My heart's numbered beat
Still echo in this empty room
Fear wells in me
But nothing seems enough to defend
So I'm going away


     G                      A 

e|---3----3-3-3-3-3-3-3-3---0---0-0-0-0-0-0-0-0---|
B|---3----3-3-3-3-3-3-3-3---2---2-2-2-2-2-2-2-2---|
G|---0----0-0-0-0-0-0-0-0---2---2-2-2-2-2-2-2-2---|
D|---0----0-0-0-0-0-0-0-0---2---2-2-2-2-2-2-2-2---|
A|---2----2-2-2-2-2-2-2-2---0---0-0-0-0-0-0-0-0---|
E|---3----3-3-3-3-3-3-3-3-------------------------|

Going away...

[Outro]
(with verse structure)

e|----------------------------------------------|
B|---0-0-0-0--0--0--0--0-0-0--0--0-0-0-0-0------|
G|---x-x-x-x--x--x--x--x-x-x--x--x-x-x-x-x------|
D|---x-x-x-x-11-11-12-12-9-9--x--x-x-x-x-x------|
A|---x-x-9-9-----------------10-10-9-9-x-x------|
E|---7-7----------------------------------------|
                                                                       
       

e|----------------------------------------------|
B|---0-0-0-0--0--0--0--0-0-0--0--0-0-0-0-0------|
G|---x-x-x-x--x--x--x--x-x-x--x--x-x-x-x-x------|
D|---x-x-x-x-11-11-12-12-9-9--x--x-x-x-x-x------|
A|---x-x-9-9-----------------10-10-9-9-7-7------|
E|---7-7----------------------------------------|


[Breakdown]

     A   A/G  A/F# Fdim/maj7

e|---2------------------------0-------|
B|---2----------------------0---0-----|
G|---2--------------------2-------2---|
D|---2------------------3-----------3-|
A|---0--------------------------------|
E|--------3----2----1-----------------|



************************************

| x  Dead note

************************************
Suggest correction
Give kudos to tab author, rate the tab!
1 2 3 4 5
comments
print report bad tab
guest
You may want to rate the tab now too:
select rating
Wanna post a correction for this tab? Suggest correction