Oops, an error
Loading. Please wait.

Knights Of The Island Counter tab

version 1
version 1

Whole song

16,373 views 1 this week
13 commentsread comments
1 2 3 4 5
x 10
add to favorites
×
Save as Personal and add changes to this tab that will be seen only by you. Learn more ›
×
You can save this tab as Personal to edit and correct it or add notes. All changes will be seen only by you. Learn more »
launch autoscroll
font size
0
reset
how to read this tab
guitar tuner
edit
Autoscroll
slow
fast
+/-
esc
set tempo
stop
E B G D A E tuning  with a capo on the 2nd fret...1st posted tab, let me kno of ne corections.

E--------------------------------------------------------------------|
B------3----------3----------3-----0-3---3---------------------------|
G----0---0------2---2------0---0-------0-----------------------------|
D------------0-----------2-------------------------------------------|
A-3------------------------------------------------------------------|
E--------------------------------------------------------------------|

Chords:
E--x--x--x-----|
B--3--3--3-----|
G--0--2--0-----|
D--0--0--2-----|
A--3--x--2-----|
E--x--x--x-----|

Easy song   and great!

            
            
Suggest correction
Creating personal tab
Creating personal tab
You can edit any tab online and save it as your Personal.

You can edit, replace or remove any tab part or add personal notes – all changes will be seen only by you.

Personal tabs can be accessed anytime from any device, even offline.
Learn more »
comments
print report bad tab
13 comments total. Showing first comments.
0 reply
Julian K 82 Jun 26, 2006 08:33 PM

i talked to dave he says for verses it D E and F, chorus F diminshed D then E, he also tunes half a step down big thing to remember

0 reply
Julian K 82 Jun 26, 2006 08:34 PM

chorues F diminshed A D then E my bad

0 reply
Julian K 82 Jun 26, 2006 08:35 PM

and he variates the verses he says

guest
You may want to rate the tab now too:
select rating
Wanna post a correction for this tab? Suggest correction