Oops, an error
Loading. Please wait.

Knights Of The Island Counter tab

version 3
version 3

Whole song

20,106 views 12 this week
3 commentsread comments
1 2 3 4 5
x 13
add to favorites
×
Save as Personal and add changes to this tab that will be seen only by you. Learn more ›
×
You can save this tab as Personal to edit and correct it or add notes. All changes will be seen only by you. Learn more »
launch autoscroll
font size
0
reset
how to read this tab
guitar tuner
edit
Autoscroll
slow
fast
+/-
esc
set tempo
stop
Dave Melillo
Knights of the Island Counter
By Dman


Capo on 1st

INTRO:
E--------------------------------------------------------------------|
B------3----------3----------3---------------------------------------|
G----0---0------2---2------0---0---2----0----------------------------|
D------------0-----------2-------------------------------------------|
A-3------------------------------------------------------------------|
E--------------------------------------------------------------------|

VERSE:
       C            D              Em           G
So we sit at this table with our hands in our laps
       C            D              Em           G
And we have a few drinks and we share a few laughs
       C                D              Em           G
But now those days have past and they’re not coming back
       C            D              Em           G
It’s a shame cause that’s all that I had


CHORUS:
             Em              G              
And we’ll sing out loud for hours
            C              D                   Em
Until the morning that we know we can’t avoid
      G           C                D           Em
These nights are notable and priceless
                    
              G             C            D              Em
I swear that every word I say, I mean until my dying day
         G         C                  D          Em
It’s a shame when I wake I can’t recall a thing
         G         C                  D              
It’s a shame when I wake I can’t recall a thing

G

VERSE
       C            D              Em           G
So keep things quiet until the rest of the street falls asleep
       C            D              Em           G
Then we’ll break out and show everyone just what were made of
       C            D              Em           G
So young, lets abuse our health and have a little fun
       C            D              Em           G
I’ll drink to that, let’s drink to that

(GOTO CHORUS)


E--------------------|
B-------3------------|
G-----0----2---0-----|
D—-0-----------------|          x 3
A--------------------|
E--------------------|


(Play INTRO:)
I’ve got some problems but we’ve got ten dollars
That’s enough to get us wasted before the night is over
These past five days I’ve been completely sober 
But tonight I’m getting ripped wide open

x 2

But tonight I’m getting ripped wide open

(Goto CHORUS)

Thanks

            
            
Suggest correction
Creating personal tab
Creating personal tab
You can edit any tab online and save it as your Personal.

You can edit, replace or remove any tab part or add personal notes – all changes will be seen only by you.

Personal tabs can be accessed anytime from any device, even offline.
Learn more »
comments
print report bad tab
3 comments total.
0 reply
greatestvictory 10 Jul 22, 2007 07:39 PM

this is the only good tab for this song.

nice job bro.

0 reply
Xb4mvluvrX 167 Aug 21, 2007 10:48 AM

ur intro is a bit off but tguk27dewees is bettr it goes like

e|----------------------------------------|
B|----------------------------------------|
G|-----8--------8--------8-------8--------|
D|---6---6----6---6----6---6---8---6-8----|
A|-4--------6--------8--------------------|
E|----------------------------------------|

but ur tab is great i'll give it 5stars

0 reply
RockxSaosin 10 Oct 17, 2009 05:27 PM

I think when playing the D chord it sounds better when you play a D/F

e|-----2--------------------|
B|-----3--------------------|
G|-----2--------------------|
D|--------------------------|
A|--------------------------|
E|-----2--------------------|
but that's just me... and I think Xb4mvluvrX is right, you should use his intro instead and this tab is almost exact. 5 stars.

guest
You may want to rate the tab now too:
select rating
Wanna post a correction for this tab? Suggest correction