Oops, an error
Loading. Please wait.

Lily Was Here Tab

version 3
version 3

Whole song

Interactive

7,261 views 15 this week
no commentswrite comment
1 2 3 4 5
accurate
x 9
add to favorites
launch autoscroll
font size
0
reset
how to read this tab
guitar tuner
Tab Pro tools
  • play this tab
  • loop segment
  • change instrument
  • show fretboard
  • metronome
×
Best way to learn
"Lily Was Here"
Autoscroll
slow
fast
+/-
esc
set tempo
stop
Contributor
    
     Music by Dave Stewart and Candy Dulfer
I`ve tabbed the saxophone parts, I`ve seen a few bands that didn`t have a sax 
player do the sax parts using an organ, fuzz or reverb,,, we used the harmonica
I didn`t tab the sax break or outro,, if someone wants them send me a message
and I`ll tab them for you.....


  ( Guitar )   ( SAX------)  (------Guitar---------) (------SAX----------------)
E|-4--0--2---|--4--0--2----|--4--0--2----|--0------|--3-2-0---2--2-|-0----------|
B|---------2-|-----------2-|-----------4-|----4--2-|--------2------|---2--------|
G|-----------|-------------|-------------|---------|---------------|-----0------|
D|-----------|-------------|-------------|---------|---------------|-------4--2-|
A|-----------|-------------|-------------|---------|---------------|------------|
E|-----------|-------------|-------------|---------|---------------|------------|

  (--Guitar-)  (--SAX------) (---------Guitar----)  (------SAX---------)
E|-4--0--2---|--4--0--2----|--4--0--2----|--0------|--7-----------------|
B|---------2-|----------2--|----------4--|----4--2-|----8--7--5----7--7-|
G|-----------|-------------|-------------|---------|------------6-------|
D|-----------|-------------|-------------|---------|--------------------|
A|-----------|-------------|-------------|---------|--------------------|
E|-----------|-------------|-------------|---------|--------------------|

  (--SAX----) (--Guitar--------) (--SAX--------)(--Guitar--------)
E|-----------|-------7--7-------|------7-------|-------7---------|
B|-5---------|----5-----------5-|----5-------5-|----5--------7--8|
G|---6--4--6-|-6-----------6----|-6-------6----|-6--------6------|
D|-----------|------------------|--------------|-----------------|
A|-----------|------------------|--------------|-----------------|
E|-----------|------------------|--------------|-----------------|
(---------------SAX------------------------)     (-- Guitar------)
E|----7--9-------------------|-------------------|-----12--12--11-----|
B|-9-------8--7----8--5------|-------------------|--------------------|
G|--------------6-------6--6-|-4-----4-----------|-13--------------13-|
D|---------------------------|----6----5--4------|--------------------|
A|---------------------------|--------------7--4-|--------------------|
E|---------------------------|-------------------|--------------------|

   (---------------SAX-------------------------)   (-------Guitar-----------)
E|-----12--12--11----|---------------------------|-----12--12--11-11-------------|
B|----------------14-|-12------------------------|-------------------14-14-12-14-|
G|-13----------------|----13--11--9--------------|-13----------------------------|
D|-------------------|--------------11--9------9-|-------------------------------|
A|-------------------|---------------------11----|-------------------------------|
E|-------------------|---------------------------|-------------------------------|

  
(------------------SAX--------------------------------)
E|-12--11----------------------|--------------------------|
B|--------14--12---------------|--------------------------|
G|---------------12--11--9-----|-11--12--11--9------------| (24 BARS OF SAX SOLO)
D|--------------------------11-|----------------11--11----|
A|-----------------------------|-----------------------14-|
E|-----------------------------|--------------------------|

  ( Guitar )   (--SAX---)   (-------Guitar-------)  (-----SAX---------)
E|-4--0--2---|-4--0--2----|-4--0--2---|---0-------|-7-------------------|
B|---------2-|----------2-|---------4-|------4--2-|---8--7--5-----6--8--|
G|-----------|------------|-----------|-----------|------------6--------|
D|-----------|------------|-----------|-----------|---------------------|
A|-----------|------------|-----------|-----------|---------------------|
E|-----------|------------|-----------|-----------|---------------------|

   (-------------SAX--------------------)  (-Guitar-)  (-----SAX---------------)
E|---------------------------------------|-4--0--2---|-3--2--0---------|-3-0-2---|
B|-7--0-----5----------------------------|---------2-|---------2--0--2-|-------2-|
G|-------6-----6-----------------4--4--6-|-----------|-----------------|---------|
D|----------------5--4--------4----------|-----------|-----------------|---------|
A|----------------------7--4-------------|-----------|-----------------|---------|
E|---------------------------------------|-----------|-----------------|---------|

  (--Guitar-)  (----------------------SAX---------------------------------)
E|-4--0--2----|---------------------------|---------------12----------------|
B|----------4-|---------------------------|--------12--14-----14--12--------|
G|------------|------------------------11-|-12--13-------------------12--11-|
D|------------|---------11-----11--14-----|---------------------------------|
A|------------|-11--14--------------------|---------------------------------|
E|------------|---------------------------|---------------------------------|

  (---------SAX-----------------------)(-----Guitar-------)(-------SAX--------)
E|------------------------------------|-------------------|---------------------|
B|------------------------------------|--------12---------|--------12-----------|
G|------------------------------------|-------------------|------------------11-|
D|-14-11-14-14-14--11--------------11-|-11-14------11--14-|--11-14-----11-12----|
A|---------------------14--11--14-----|-------------------|---------------------|
E|------------------------------------|-------------------|---------------------|

  (---- Guitar--------) (--------------------- SAX-----------------------------)
E|---------------------|-------------------------|-------------------------12----|
B|--------12-----------|-------------------------|-------------------12-14----14-|
G|---------------11-13-|-13-13-13-13-11-------11-|----11-13----11-13-------------|
D|-11-14------11-------|----------------14-11----|-14-------14-------------------|
A|---------------------|-------------------------|-------------------------------|
E|---------------------|-------------------------|-------------------------------|

  (--- Guitar------)(------------ SAX-------------------------)
E|-----12-12-11----|--------12-11----|-------------------------|
B|-----------------|-----------------|-------------------------|
G|-13-----------13-|-13--13-------13-|-11-------11-------------|
D|-----------------|-----------------|----14-11----14-11-------|
A|-----------------|-----------------|-------------------14-11-|
E|-----------------|-----------------|-------------------------|

  (------  Guitar-----------)
E|-----12-12-11-------------|
B|--------------14-14-12-14-|
G|-13-----------------------|  (END WITH SAX OUTRO)
D|--------------------------|
A|--------------------------|
E|--------------------------|


An F. Kruger  Tab,,, Enjoy!!!!!!
comments
print report bad tab
I want to post or [tab]
guest
You may want to rate the tab now too:
select rating
Please do not post tabs as comments. Select "correction" instead!