Oops, an error
Loading. Please wait.

Nostalgia In Stereo Acoustic Tab

2,419 views 9 this week
no commentswrite comment
1 2 3 4 5
2 more votes to show rating
add to favorites
launch autoscroll
font size
0
reset
how to read this tab
guitar tuner
Autoscroll
slow
fast
+/-
esc
set tempo
stop
Help us to improve Ultimate-Guitar.com Take our survey!
×
Author
---------------------------------------------------------------------------
Nostalgia in Stereo  – Davenport Cabinet
--------------------------------------------------------------------------
Tabbed by: Paddy
Email: Paddy_s13@hotmail.com

Tuning: Standard

Hello! So this is my attempt of the acoustic version Travis played on the Neverender 
The actual version is a bit jazzier.
The original is available on itunes and on the D.C Myspace.
I believe this version will be on the Neverender boxset so you can also
find it there. Still great tune! So enjoy!

Intro:
e|---------------------------------------------------------------------|
B|---------------------------------------------------------------------|
G|------5-4-5-----5-4-2------------------------------------------------|
D|---------------------------10-9-10--12-12--10-10---------------------|
A|---00---------------------------------------------14-14-12-12--------|
E|-------------33---------88----------10-10----------------------------|

e|---------------------------------------------------------------------|
B|---------------------------------------------------------------------|
G|------5-4-5-----5-4-2------------------------------------------------|
D|---------------------------10-9-10--12-12--10-10---------------------|
A|---00---------------------------------------------14-14-12-12--------|
E|-------------33---------88----------10-10----------------------------|

e|---------------------------------------------------------------------|
B|---------------------------------------------------------------------|
G|------5-4-5-----5-4-2------------------------------------------------|
D|------5-4-5-----5-4-2------10-9-10--12-12--10-10---------------------|
A|---00---------------------------------------------14-14-12-12--------|
E|-------------33---------88----------10-10----------------------------|

Verse:
 “I surrender to the stereo, I will take this one step past the line...”
e|----------PM through out------------------------------------------------|
B|-|--------------------------------------------------7-7--7--5-5--5------|
G|--2-2--2-2-2--2-------------------------------------7-7--7--7-7--7------|
D|--2-2--2-2-2--2--5-5--5--5-5-5--10-10--10-10-10-10--5-5--5--5-5--5------|
A|-----------------5-5--5--5-5-5--10-10--10-10-10—10----------------------|
E|-----------------3-3--3--3-3-3--8--8---8—-8—-8---8----------------------|

e|------------------------------------------------------------------------|
B|-|--------------------------------------------------7-7--7--5-5--5------|
G|--2-2--2-2-2--2-------------------------------------7-7--7--7-7--7------|
D|--2-2--2-2-2--2--5-5--5--5-5-5--10-10--10-10-10-10--5-5--5--5-5--5------|
A|-----------------5-5--5--5-5-5--10-10--10-10-10—10----------------------|
E|-----------------3-3--3--3-3-3--8--8---8—-8—-8---8----------------------|

e|---------------------------------------------------------------------|
B|---------------------------------------------------------------------|
G|------5-4-5-----5-4-2------------------------------------------------|
D|---------------------------10-9-10--12-12--10-10---------------------|
A|---00---------------------------------------------14-14-12-12--------|
E|-------------33---------88----------10-10----------------------------|

e|----------PM through out------------------------------------------------|
B|-|--------------------------------------------------7-7--7--5-5--5------|
G|--2-2--2-2-2--2-------------------------------------7-7--7--7-7--7------|
D|--2-2--2-2-2--2--5-5--5--5-5-5--10-10--10-10-10-10--5-5--5--5-5--5------|
A|-----------------5-5--5--5-5-5--10-10--10-10-10—10----------------------|
E|-----------------3-3--3--3-3-3--8--8---8—-8—-8---8----------------------|

e|------------------------------------------------------------------------|
B|-|--------------------------------------------------7-7--7--5-5--5------|
G|--2-2--2-2-2--2-------------------------------------7-7--7--7-7--7------|
D|--2-2--2-2-2--2--5-5--5--5-5-5--10-10--10-10-10-10--5-5--5--5-5--5------|
A|-----------------5-5--5--5-5-5--10-10--10-10-10—10----------------------|
E|-----------------3-3--3--3-3-3--8--8---8—-8—-8---8----------------------|
e|------------------------------------------------------------------------|

Chorus:
“ Way out...”
e|--0------------------------------------------------|
B|--0------------------------------------------------|
G|--2------------------------------------------------|
D|--2---X5----5-X5----3-X5----5-----5--------X2------|
A|--0---------5-------3-------3-x2--5-x3-------------|
E|--0---------3-------1-------------3----------------|

Then back to the intro and the Verse

Bridge:
“I count down from ten, and she off again....”
e|--PM through out-----------------------------------------|
B|---------------------------------------------------------|
G|--7------5------7------5---------------------------------|
D|--7-X16--5—x16--7-x16--5-x16-----------------------------|
A|--5------3------5------3---------------------------------|
E|---------------------------------------------------------|

Chorus:
e|--0------------------------------------------------|
B|--0------------------------------------------------|
G|--2------------------------------------------------|
D|--2---X5----5-X5----3-X5----5-----5--------X2------|
A|--0---------5-------3-------3-x2--5-x3-------------|
E|--0---------3-------1-------------3----------------|

End on
Chorus:
e|-------------------|
B|-------------------|
G|-------------------|
D|--5----------------|
A|--5----------------|
E|--3----------------|


| /  slide up
| \  slide down
| h  hammer-on
| p  pull-off
| ~  vibrato
| +  harmonic
| x  Mute note

All the best!
Paddy
===========================================================================
Suggest correction
Give kudos to tab author, rate the tab!
1 2 3 4 5
comments
print report bad tab
guest
You may want to rate the tab now too:
select rating
Wanna post a correction for this tab? Suggest correction