Oops, an error
Loading. Please wait.

Anji Tab

version 1
version 1

Whole song

Interactive

27,983 views 30 this week
1 commentread comment
1 2 3 4 5
x 4
add to favorites
launch autoscroll
font size
0
reset
how to read this tab
guitar tuner
Autoscroll
slow
fast
+/-
esc
set tempo
stop
Help us to improve Ultimate-Guitar.com Take our survey!
×
This file is the author's own work and represents their interpretation of the
song. You may only use this file for private study, scholarship, or research)

Notes:
Time is 4/4 (mostly)
Most of it is based on standard Am chord
Fret base notes with 4th finger and thumb around neck
Strum like flamenco rasguado ie. with open hand
I've marked the beats in a couple of places as my spacing is not accurate.
0^1^0 means hammer-on and pull-off
the ^ above a note means bend.

E|-------------------------------------|-------------------------------------|
B|-------------0^1^0----0--------------|-0-------0---------------------------|
G|-------------------2---------------2-|----2--------------------------------|
D|-------------------------------------|-------------------------2-----------|
A|--0------0---------------------------|-------------------------------------|
E|----------------------3---------3----|-1-------1----------0---------0------|
                       _____________     __________
                        4th finger       thumb

E|-------------------------------------|-------------------------------------|
B|-------------0^1^0----0--------------|-0^1^0---0---------------------------|
G|-------------------2---------------2-|------2---------------------------2--|
D|---------------------------2---------|-------------------------2-----------|
A|--0------0---------------------------|-------------------------------------|
E|----------------------3---------3----|-1-------1----------0---------0------|

E|-------------------------------------|-------------------------------------|
B|---------0^1^0--------0--------------|-0^1^0---0---------------------------|
G|-----2----------2------------------2-|-------2-----------------------------|
D|-------------------------------------|-------------------------2-----------|
A|--0------0---------------------------|-------------------------------------|
E|----------------------3---------3----|-1-------1----------0---------0------|

                                                                    strum
E|---------------------------0---------|------------------------------0------|
B|---------0^1^0--------0--------------|-1-------1-----0--------------0------|
G|------2---------2------------------2-|-----2------------------------2------|
D|-------------------------------------|------------------------------2------|
A|--0------0---------------------------|-------------------------------------|
E|----------------------3---------3----|-1-------1----------0---------0------|

E|-------------------------------------|-------------------------------------|
B|---------0^1^0--------0--------------|-0^1^0---0---------------------------|
G|-----2----------2------------------2-|-------2-----------------------------|
D|-------------------------------------|-------------------------------------|
A|--0------0---------------------------|-------------------------------------|
E|----------------------3---------3----|-1-------1----------0---------0------|

E|-------------------------------------|-------------------------------------|
B|---------0^1^0--------0--------------|-0^1^0---0---------------------------|
G|------2---------2------------------2-|-------2-----------------------------|
D|-------------------------------------|-------------------------------------|
A|--0------0---------------------------|-------------------------------------|
E|----------------------3---------3----|-1-------1----------0---------0------|

                                                                    strum
E|---------------------------0---------|------------------------------0------|
B|---------0^1^0--------0--------------|-1-------1-----0--------------0------|
G|------2---------2------------------2-|-----2------------------------2------|
D|-------------------------------------|------------------------------2------|
A|--0------0---------------------------|-------------------------------------|
E|----------------------3---------3----|-1-------1----------0---------0------|

                                                                     strum
E|-------------------------------------|------------------------------0------|
B|---------0^1^0--------0--------------|-1-------1---0----------------0------|
G|------2---------2------------------2-|----2-------------------------2------|
D|-------------------------------------|------------------------------2------|
A|--0------0---------------------------|-------------------------------------|
E|----------------------3---------3----|-1-------1----------0---------0------|

                                                              PICK
E|-------------------------------------|------------------------0------------|
B|---------1------------1----1---------|-1-------1----0---------0------------|
G|-----2--------2--------------------2-|-----2------------------2------------|
D|-------------------------------------|------------------------2------------|
A|--0------0---------------------------|-------------------------------------|
E|----------------------3---------3----|-1-------1----------0---------0------|

E|-------------------------------------|------------------------0------------|
B|---------1------------1----1---------|-1-------1----0---------0------------|
G|------2--------2-------------------2-|-----2------------------2------------|
D|-------------------------------------|------------------------2------------|
A|--0------0---------------------------|-------------------------------------|
E|----------------------3---------3----|-1-------1----------0---------0------|

E|--------------------------------0----|-------------------------------------|
B|----------------------1---------1----|----------0^1^0-----1----------------|
G|-----2--------------------------2----|------2----------2-------------------|
D|--------------------------------2----|-------------------------------------|
A|--0------0------------0--------------|--0-------0---------0----------0-----|
E|-------------------------------------|-------------------------------------|

                bend
E|---------------^---------------------|------------------------0------------|
B|---------1-----3----------1----------|------------------------1------------|
G|------2------------------------2-----|---------1-------2------2-----2------|
D|-----------------------------------0-|------2-----------------2------------|
A|--0------0-----------0---------0-----|---------2-------0-------------------|
E|-------------------------------------|--0----------------------------------|
                                          ^      ^       ^      ^

E|-------------------------------------|-------------------------------------|
B|--0^1^0---0--------------------------|-----------0^1^0---------------------|
G|--------2----------------------------|-------2-------------------------2---|
D|-------------------------------------|-------------------------------------|
A|-------------------------------------|---0-------0-------------------------|
E|--1-------1-----------0----------0---|--------------------3---------3------|

E|-------------------------------------|-----------^--------^----------------|
B|--0^1^0---0--------------------------|-----------3--------3-----1----------|
G|--------2----------------------------|------2-----------------------2------|
D|--------------------------2----------|-------------------------------------|
A|-------------------------------------|---0-------0--------0---------0------|
E|--1-------1----------0---------0-----|-------------------------------------|

E|--^--------^-------------------------|------------^------------------------|
B|--3--------3--------3----1-----------|------------3--------3----1----------|
G|-------------------------------2-----|-------2----------------------0------|
D|-------------------------------------|-------------------------------------|
A|--0--------0--------0----------0-----|---0--------0--------0--------0------|
E|-------------------------------------|-------------------------------------|

E|-------------------------------------|-----------^-------------------------|
B|-------------------------------------|-----------3---------3----1----------|
G|----------0--------2---------2-------|-------2-----------------------2-----|
D|---2-------------------------2-------|-------------------------------------|
A|-------------------0---------0-------|---0-------0---------0---------0-----|
E|---0------0--------------------------|-------------------------------------|

E|---^-------^-------------------------|-----------^-------------------------|
B|---3-------3--------3----1-----------|-----------3---------3---1-----------|
G|------------------------------0^2----|-------2-----------------------2--0--|
D|-------------------------------------|-------------------------------------|
A|---0-------0--------0---------0^2----|---0-------0---------0---------0-----|
E|-------------------------------------|-------------------------------------|
                                ^

E|-------------------------------------|-------------------------------------|
B|-------------------------------------|-------------------------------------|
G|------------2------------------------|--Repeat 1st 4 bars -----------------|
D|-----2-------------------------------|-------------------------------------|
A|-------------------------------------|-------------------------------------|
E|-----0------0------------------------|-------------------------------------|
     This bar 2/4 time
Suggest correction
comments
print report bad tab
1 comment total.
0 reply
tb_1337 20 Oct 18, 2007 12:54 PM

great tab. nice work.

guest
You may want to rate the tab now too:
select rating
Wanna post a correction for this tab? Suggest correction