Oops, an error
Loading. Please wait.

Cadillacs On 22S Tab

version 2
version 2

Intro

Whole song

4,601 views 1 this week
no commentswrite comment
1 2 3 4 5
2 more votes to show rating
add to favorites
launch autoscroll
font size
0
reset
how to read this tab
guitar tuner
Autoscroll
slow
fast
+/-
esc
set tempo
stop
Help us to improve Ultimate-Guitar.com Take our survey!
×
Author
Difficulty
novice
Song: Cadillacs on 22's
By: David Banner

Submitted by: Skyles

This tab may not be 100% accurate, but it's close. The other tabs were just horrible,
I had to do something about it. It's pretty easy to play.


Standard Tuning

e|--------------------------------------------------------|
B|----------1-------------------3--0---------------3------|
G|------0-----0---0---------0--------------------3---3----|
D|----2---2-----2---------2------------0-------3----------|
A|--3------------------------------0h2------1-------------|
E|---------------------0----------------------------------|

e|-----------------------------|
B|-----------------------------|
G|-----------2-0----0h2-0------|
D|------(3)------3-------------|
A|----(3)----------------------|
E|--1--------------------------|


Questions? Comments? Metaphysical33@gmail.com
Suggest correction
Give kudos to tab author, rate the tab!
1 2 3 4 5
comments
print report bad tab
guest
You may want to rate the tab now too:
select rating
Wanna post a correction for this tab? Suggest correction