Oops, an error
Loading. Please wait.

Wolves At The Door tab

4,218 views 3 this week
1 commentread comment
1 2 3 4 5
3 more votes to show rating
add to favorites
×
Save as Personal and add changes to this tab that will be seen only by you. Learn more ›
×
You can save this tab as Personal to edit and correct it or add notes. All changes will be seen only by you. Learn more »
launch autoscroll
font size
0
reset
how to read this tab
guitar tuner
edit
Autoscroll
slow
fast
+/-
esc
set tempo
stop
the guitar part is the same for the whole song except for when he pick some of the
same notes a couple time, but you guys can pick that part out pretty easy

Here is Bazan's guitar part

e------------------------------------------------|
B--8-8--6-6--5-5--3-31--3-3--5-5--5-5-5--6--6-6--|
G--7-7--7-7--7-7--2-22--2-2--2-2--3-3-3--3--3-3--|
D-0---0----0----0-----0----0---------------------|
A------------------------------------------------|
E------------------------------------------------|

then at the end of the song he plays this
e-----------------------------|
B--8-8--6-6--5-5--3-3--6-6----|
G--7-7--7-7--7-7--2-2--7-7----|
D-0---0----0---------0--------|
A-----------------------------|
E-----------------------------|
pretty simple song, thanks for checking it out.

Here is the bass part that plays throughout

e-----------------------------------|
B-----------------------------------|
G-----------------------------------|
D-----------------------------------|
A-3/5-5555--------------------------|
E----------111111--5/6-6666--33333--| 

            
            
Suggest correction
Creating personal tab
Creating personal tab
You can edit any tab online and save it as your Personal.

You can edit, replace or remove any tab part or add personal notes – all changes will be seen only by you.

Personal tabs can be accessed anytime from any device, even offline.
Learn more »
Give kudos to tab author, rate the tab!
1 2 3 4 5
comments
print report bad tab
1 comment total.
0 reply
isaiah756 60 Apr 01, 2012 07:55 PM

oh i forgot the part on the 33
22

do this on the first set of 3
2
-------------------
--3-3-1--3-3-------
--2-2-2--2-2-------
-0-----------------
-------------------
then just keep it them same after that

guest
You may want to rate the tab now too:
select rating
Wanna post a correction for this tab? Suggest correction