Oops, an error
Loading. Please wait.

Always Crashing In The Same Car Chords

8,780 views 39 this week
4 commentsread comments
1 2 3 4 5
x 7
add to favorites
launch autoscroll
font size
0
reset
transpose
0
reset
simplify chords
display chords
guitar tuner
×
Best way to learn
"Always Crashing In The Same Car"
Autoscroll
slow
fast
+/-
esc
set tempo
stop
VERSE 1         G                     Em
                  Every chance, every chance that I take
                F                  G
                  I take it on the road
                G                          Em
                  Those kilometers and the red lights
                F                                     G
                  I was always looking left and right
                (G)
                  Oh, but I'm 
                Bb/F     F                Em (with fill 1)
                  Always crashing in the same car

INTERLUDE       C | C | D | D
                Em | Em | C9 | C7
                F | Dm/F | Fmaj7 | F

VERSE 2		Jasmine, I saw you peeping
		As I pushed my foot down to the floor
		I was going round and round the hotel garage
		Must have been touching close to 94
		Oh, but I'm always crashing in the same car

INTERLUDE       C  | C  | D  | D
                Em | Em | C9 | C7
                F | Dm/F | Fmaj7 | F

OUTRO           G | G | Em | Em
                F | F | G | G
                Bb/F | F | Em

FILL 1          |-----2-3-5-3-2-3~-|
                |------------------|
                |------------------|
                |------------------|
                |------------------|
                |------------------|

Suggest correction
comments
print report bad tab
4 comments total. Showing first comments.
0 reply
Indie Purist 949 May 22, 2013 06:43 PM

Not really a correction, rather an addition. I figured people would appreciate the intro.

|----------------------------------2-2-----|
|-3b4-2-0-2-2h4p2p0-2b3----3b4-2-0-----2b3-|
|------------------------------------------|
|------------------------------------------|
|------------------------------------------|
|------------------------------------------|

0 reply
Indie Purist 949 Jul 26, 2014 05:34 PM

Sorry, should be for the song "Breaking Glass"

0 reply
floflo79 75 Jun 07, 2015 09:56 AM, edited at 01:57 pm

An addition : the sax theme which appears in the verses :

|------------------------------------------|
|------------------------------------------|
|-0------0---------------------------------|
|----2-0----2-0----------------------------|
|------------------------------------------|
|------------------------------------------|

It's a great tab ! Really like the chord progression of this song

guest
You may want to rate the tab now too:
select rating
Wanna post a correction for this tab? Suggest correction