Oops, an error
Loading. Please wait.

Andy Warhol Tab

version 1
version 1

Whole song

Interactive

30,938 views 84 this week
no commentswrite comment
1 2 3 4 5
accurate
x 8
add to favorites
launch autoscroll
font size
0
reset
how to read this tab
guitar tuner
Autoscroll
slow
fast
+/-
esc
set tempo
stop
Help us to improve Ultimate-Guitar.com Take our survey!
×
[INTRO] x2

e|--------------------------------|--------------------------------|
B|--------------------------------|--------------------------------|
G|--------------------------------|-----X-X-5---X-X-5---X-X--------|
D|-2---X-X-2---X-X-----------2-4-5|-----X-X-5---X-X-5---X-X--------|
A|-2---X-X-2---X-X-------0-2------|-3---3-3-3---3-3-3---3-3-2-0----|
E|-0---0-0-0---0-0-0-2-3----------|-----------------------------3-2|


[VERSE]

e|--------------------------------|--------------------------------|
B|--------------------------------|--------------------------------|
G|--------------------------------|-----------------2---X-X-2---X-X|
D|-2---X-X-2---X-X-2---X-X-2---X-X|-2---X-X-2---X-X-2---X-X-2---X-X|
A|-2---X-X-2---X-X-2---X-X-2---X-X|-2---X-X-2---X-X-0---0-0-0---0-0|
E|-0---0-0-0---0-0-0---0-0-0---0-0|-0---0-0-0---0-0----------------|

e|----------------------------------------|--------------------------------|
B|----------------------------------------|--------------------------------|
G|-2---X-X-2-X-X-X-----------------2------|--------------------------------|
D|-2---X-X-2-X-X-X-5-------5-------2------|-2---X-X-2---X-X-2---X-X-2---X-X|
A|-0---0-0-0-------3-------2-------0------|-2---X-X-2---X-X-2---X-X-2---X-X|
E|----------------------------------------|-0---0-0-0---0-0-0---0-0-0---0-0|

e|--------------------------------|
B|--------------------------------|
G|-5---X-X-5---X-X-5---X-5-X-7-7-7|
D|-5---X-X-5---X-X-5---X-5-X-7-7-7|
A|-3---3-3-3---3-3-3---3-3-3-5-5-5|
E|--------------------------------|

e|--------------------------------|--------------------------------|
B|--------------------------------|--------------------------------|
G|--------------------------------|-----------------2---X-X-2---X-X|
D|-2---X-X-2---X-X-2---X-X-2---X-X|-2---X-X-2---X-X-2---X-X-2---X-X|
A|-2---X-X-2---X-X-2---X-X-2---X-X|-2---X-X-2---X-X-0---0-0-0---0-0|
E|-0---0-0-0---0-0-0---0-0-0---0-0|-0---0-0-0---0-0----------------|

e|----------------------------------------|--------------------------------|
B|----------------------------------------|--------------------------------|
G|-2---X-X-2-X-X-X-----------------2------|--------------------------------|
D|-2---X-X-2-X-X-X-5-------5-------2------|-2---X-X-2---X-X-----------2-4-5|
A|-0---0-0-0-------3-------2-------0------|-2---X-X-2---X-X-------0-2------|
E|----------------------------------------|-0---0-0-0---0-0-0-2-3----------|

e|--------------------------------|
B|--------------------------------|
G|-----X-X-5---X-X-5---X-5-X-7-7-7|
D|-----X-X-5---X-X-5---X-5-X-7-7-7|
A|-3---3-3-3---3-3-3---3-3-3-5-5-5|
E|--------------------------------|


[CHORUS]

e|--------------------------------|--------------------------------|
B|--------------------------------|--------------------------------|
G|-7---X-X-----------------5---X-X|---------5---X-X----------------|
D|-7---X-X-7---X-X-2---X-X-5---X-X|-7---X-X-5---X-X-5---X-X-7---X-X|
A|-5---X-X-7---X-X-2---X-X-3---X-X|-7---X-X-3---X-X-5---X-X-7---X-X|
E|---------5---X-X-0---X-X--------|-5---X-X---------3---X-X-5---X-X|

e|--------------------------------|--------------------------------|
B|--------------------------------|--------------------------------|
G|-7---X-X-----------------5---X-X|---------5---X-X----------------|
D|-7---X-X-7---X-X-2---X-X-5---X-X|-7---X-X-5---X-X-5---X-X-7---X-X|
A|-5---X-X-7---X-X-2---X-X-3---X-X|-7---X-X-3---X-X-5---X-X-7---X-X|
E|---------5---X-X-0---X-X--------|-5---X-X---------3---X-X-5---X-X|

e|--------------------------------|
B|--------------------------------|
G|--------------------------------|
D|-7------------------------------|
A|-7------------------------------|
E|-5------------------------------|


[INTRO]

e|--------------------------------|--------------------------------|
B|--------------------------------|--------------------------------|
G|--------------------------------|-----X-X-5---X-X-5---X-X--------|
D|-2---X-X-2---X-X-----------2-4-5|-----X-X-5---X-X-5---X-X--------|
A|-2---X-X-2---X-X-------0-2------|-3---3-3-3---3-3-3---3-3-2-0----|
E|-0---0-0-0---0-0-0-2-3----------|-----------------------------3-2|


[VERSE]

e|--------------------------------|--------------------------------|
B|--------------------------------|--------------------------------|
G|--------------------------------|-----------------2---X-X-2---X-X|
D|-2---X-X-2---X-X-2---X-X-2---X-X|-2---X-X-2---X-X-2---X-X-2---X-X|
A|-2---X-X-2---X-X-2---X-X-2---X-X|-2---X-X-2---X-X-0---0-0-0---0-0|
E|-0---0-0-0---0-0-0---0-0-0---0-0|-0---0-0-0---0-0----------------|

e|----------------------------------------|--------------------------------|
B|----------------------------------------|--------------------------------|
G|-2---X-X-2-X-X-X-----------------2------|--------------------------------|
D|-2---X-X-2-X-X-X-5-------5-------2------|-2---X-X-2---X-X-2---X-X-2---X-X|
A|-0---0-0-0-------3-------2-------0------|-2---X-X-2---X-X-2---X-X-2---X-X|
E|----------------------------------------|-0---0-0-0---0-0-0---0-0-0---0-0|

e|--------------------------------|
B|--------------------------------|
G|-5---X-X-5---X-X-5---X-5-X-7-7-7|
D|-5---X-X-5---X-X-5---X-5-X-7-7-7|
A|-3---3-3-3---3-3-3---3-3-3-5-5-5|
E|--------------------------------|

e|--------------------------------|--------------------------------|
B|--------------------------------|--------------------------------|
G|--------------------------------|-----------------2---X-X-2---X-X|
D|-2---X-X-2---X-X-2---X-X-2---X-X|-2---X-X-2---X-X-2---X-X-2---X-X|
A|-2---X-X-2---X-X-2---X-X-2---X-X|-2---X-X-2---X-X-0---0-0-0---0-0|
E|-0---0-0-0---0-0-0---0-0-0---0-0|-0---0-0-0---0-0----------------|

e|----------------------------------------|--------------------------------|
B|----------------------------------------|--------------------------------|
G|-2---X-X-2-X-X-X-----------------2------|--------------------------------|
D|-2---X-X-2-X-X-X-5-------5-------2------|-2---X-X-2---X-X-----------2-4-5|
A|-0---0-0-0-------3-------2-------0------|-2---X-X-2---X-X-------0-2------|
E|----------------------------------------|-0---0-0-0---0-0-0-2-3----------|

e|--------------------------------|
B|--------------------------------|
G|-----X-X-5---X-X-5---X-5-X-7-7-7|
D|-----X-X-5---X-X-5---X-5-X-7-7-7|
A|-3---3-3-3---3-3-3---3-3-3-5-5-5|
E|--------------------------------|


[CHORUS] x2

e|--------------------------------|--------------------------------|
B|--------------------------------|--------------------------------|
G|-7---X-X-----------------5---X-X|---------5---X-X----------------|
D|-7---X-X-7---X-X-2---X-X-5---X-X|-7---X-X-5---X-X-5---X-X-7---X-X|
A|-5---X-X-7---X-X-2---X-X-3---X-X|-7---X-X-3---X-X-5---X-X-7---X-X|
E|---------5---X-X-0---X-X--------|-5---X-X---------3---X-X-5---X-X|

e|--------------------------------|--------------------------------|
B|--------------------------------|--------------------------------|
G|-7---X-X-----------------5---X-X|---------5---X-X----------------|
D|-7---X-X-7---X-X-2---X-X-5---X-X|-7---X-X-5---X-X-5---X-X-7---X-X|
A|-5---X-X-7---X-X-2---X-X-3---X-X|-7---X-X-3---X-X-5---X-X-7---X-X|
E|---------5---X-X-0---X-X--------|-5---X-X---------3---X-X-5---X-X|

e|--------------------------------|
B|--------------------------------|
G|--------------------------------|
D|-7------------------------------|
A|-7------------------------------|
E|-5------------------------------|


************************************

| x   Dead note

************************************
Suggest correction
What's this?
You can suggest a correction to this tab. Community and Mods will review your correction and vote to approve or reject it.
comments
print report bad tab
guest
You may want to rate the tab now too:
select rating
Please do not post tabs as comments. Select "correction" instead!