Oops, an error
Loading. Please wait.
We have an official Ashes To Ashes tab made by UG professional guitarists. Check out the tab »
×

Ashes To Ashes bass

version 3
version 3

Whole song

  • Accurate and full song version with duration of the notes.

Interactive

37 views 1 this week
no commentswrite comment
1 2 3 4 5
1 last vote to show rating
add to favorites
×
Save as Personal and add changes to this tab that will be seen only by you. Learn more ›
×
You can save this tab as Personal to edit and correct it or add notes. All changes will be seen only by you. Learn more »
launch autoscroll
font size
0
reset
guitar tuner
backing track
0:00
0:00
edit
Autoscroll
slow
fast
+/-
esc
set tempo
stop
Artist: David Bowie
Song: Ashes to ashes
Album: Scary monsters (and super creeps)

Bowie´s been a part of me almost all my life. His death encouraged me to write down these bass tabs
which I'll upload from time to time.
Tabbed by Leo Chiurco

[Intro] (SLAP)
G|---------------------------------|---------------------------------|
D|-------------8-------------------|-------------6-------------------|
A|---------------------------------|-----------------------------X---|
E|-6---6-----------------------X---|-4---4---------------------------|
   1 + + + 2 + + + 3 + + + 4 + + +   1 + + + 2 + + + 3 + + + 4 + + +

G|-------------8-------------------|---------------------------------|
D|---------------------------------|-------------8-------------------|
A|-6---6---------------------------|-----------------------------X---|
E|---------------------2-------4---|-6-------------------------------|
   1 + + + 2 + + + 3 + + + 4 + + +   1 + + + 2 + + + 3 + + + 4 + + +

G|---------------------------------|-------------8-------------------|
D|-------------6-------------------|---------------------------------|
A|---------------------------------|-6---6-----------------------X---|
E|-4---------------------------X---|---------------------------------|
   1 + + + 2 + + + 3 + + + 4 + + +   1 + + + 2 + + + 3 + + + 4 + + +

G|---------------------------------|---------------------------------|
D|-------------8-------6-----------|-------------6-------------------|
A|---------------------------------|-----------------------------X---|
E|-6---------------------------X---|-4---4---------------------------|
   1 + + + 2 + + + 3 + + + 4 + + +   1 + + + 2 + + + 3 + + + 4 + + +

G|-------------8-------------------|---------------------------------|
D|---------------------------------|-------------8-------------------|
A|-6---6---------------------------|-----------------------------X---|
E|-----------------------------X---|-6---6---------------------------|
   1 + + + 2 + + + 3 + + + 4 + + +   1 + + + 2 + + + 3 + + + 4 + + +

G|---------------------------------|-------------8-------------------|
D|-------------6-------------------|---------------------------------|
A|---------------------4-----------|/6---6---------------------------|
E|-4---4-----------------------6---|---------------------------------|
   1 + + + 2 + + + 3 + + + 4 + + +   1 + + + 2 + + + 3 + + + 4 + + +

G|---------------------------------|---------------------------------|
D|-------------8-------------------|-------------6-------------------|
A|---------------------------------|-----------------------------X---|
E|-6---6-----------------------X---|-4---4---------------------------|
   1 + + + 2 + + + 3 + + + 4 + + +   1 + + + 2 + + + 3 + + + 4 + + +

G|-------------8-------------------|---------------------------------|
D|---------------------------------|-------------8-------------------|
A|-6---6---------------------------|---------------------------------|
E|---------------------2-------4---|-6---6-----------------------X---|
   1 + + + 2 + + + 3 + + + 4 + + +   1 + + + 2 + + + 3 + + + 4 + + +

[Verse 1] (FINGER)
G|---------------------------------|---------------------------------|
D|-------------6-------------------|-------------6-------------------|
A|---------------------------------|---------------------------------|
E|-4---4---------------4-------X---|-4---4-----------------------X---|
   1 + + + 2 + + + 3 + + + 4 + + +   1 + + + 2 + + + 3 + + + 4 + + +

G|---------------------------------|---------------------------------|
D|-------------3-------------------|-------------3-------------------|
A|---------------------------------|-----------------------------3h--|
E|-1---1---------------1-------X---|-1---1---------------------------|
   1 + + + 2 + + + 3 + + + 4 + + +   1 + + + 2 + + + 3 + + + 4 + + +

G|-------------6-------------------|---------------------------------|
D|---------------------------------|---------------------------------|
A|-4---4---------------4-----------|-4---4-------4-------------------|
E|-----------------------------4---|---------------------------------|
   1 + + + 2 + + + 3 + + + 4 + + +   1 + + + 2 + + + 3 + + + 4 + + +

G|-------------8-------------------|---------------------------------|
D|---------------------------------|---------------------------------|
A|-6---6---------------6-----------|-6---6-------6-------------------|
E|-----------------------------6---|-----------------------------X---|
   1 + + + 2 + + + 3 + + + 4 + + +   1 + + + 2 + + + 3 + + + 4 + + +

G|---------------------------------|---------------------------------|
D|-------------4-------3-----------|-4---3---------------------------|
A|-----------------------------4---|-----------------------------3h--|
E|-2---2---------------------------|-------------2-------------------|
   1 + + + 2 + + + 3 + + + 4 + + +   1 + + + 2 + + + 3 + + + 4 + + +

G|-------------6-------5-----------|---------------------------------|
D|-----------------------------6---|-3-------------------------------|
A|-4---4---------------------------|---------6-------3---------------|
E|---------------------------------|---------------------1-----------|
   1 + + + 2 + + + 3 + + + 4 + + +   1 + + + 2 + + + 3 + + + 4 + + +

G|---------------------------------|---------------------------------|
D|-------------4-------3-----------|-------------4-------------------|
A|-----------------------------4---|---------------------------------|
E|-2---2---------------------------|-2---2---------------------------|
   1 + + + 2 + + + 3 + + + 4 + + +   1 + + + 2 + + + 3 + + + 4 + + +

G|---------------------------------|---------------------------------|
D|-------------6-------------------|-------------7-------------------|
A|---------------------------------|---------------------------------|
E|-4---4---------------4-----------|-5---5---------------5-----------|
   1 + + + 2 + + + 3 + + + 4 + + +   1 + + + 2 + + + 3 + + + 4 + + +

[Pre-chorus 1] (SLAP)
G|---------------------------------|---------------------------------|
D|-------------8-------------------|-------------8-------------------|
A|---------------------------------|---------------------------------|
E|-6---6---------------6-------X---|-6---6-----------------------X---|
   1 + + + 2 + + + 3 + + + 4 + + +   1 + + + 2 + + + 3 + + + 4 + + +

G|---------------------------------|---------------------------------|
D|-------------3-------------------|-------------3-------------------|
A|---------------------------------|---------------------------------|
E|-1---1---------------1-------X---|-1---1-----------------------X---|
   1 + + + 2 + + + 3 + + + 4 + + +   1 + + + 2 + + + 3 + + + 4 + + +

G|---------------------------------|---------------------------------|
D|-------------6-------------------|-------------6-------------------|
A|---------------------------------|-----------------------------4/--|
E|-4---4---------------4-------X---|-4---4---------------------------|
   1 + + + 2 + + + 3 + + + 4 + + +   1 + + + 2 + + + 3 + + + 4 + + +

G|-------------8-------------------|-------------8-------------------|
D|---------------------------------|---------------------------------|
A|-6---6---------------6-----------|-6---6---------------------------|
E|-----------------------------X---|---------------------------------|
   1 + + + 2 + + + 3 + + + 4 + + +   1 + + + 2 + + + 3 + + + 4 + + +
(FINGER)
G|---------------------------------|---------------------------------|
D|-------------4-------3-----------|---------------------------------|
A|-----------------------------4---|---------------------------------|
E|-2---2---------------------------|-2-----------2-------------------|
   1 + + + 2 + + + 3 + + + 4 + + +   1 + + + 2 + + + 3 + + + 4 + + +

G|-------------6-------------------|---------------------------------|
D|-----------------------------X---|-3---3---------------------------|
A|-4---4---------------4-----------|---------------------------------|
E|---------------------------------|-------------1-------------------|
   1 + + + 2 + + + 3 + + + 4 + + +   1 + + + 2 + + + 3 + + + 4 + + +

[Chorus 1](FINGER)
G|---------------------------------|---------------------------------|
D|-------------4-------------------|-------------6-------------------|
A|-----------------------------X-X-|---------------------------------|
E|-2---2---------------2-----------|-4---4---------------------------|
   1 + + + 2 + + + 3 + + + 4 + + +   1 + + + 2 + + + 3 + + + 4 + + +

G|-------------6-------------------|---------------------------------|
D|---------------------------------|---------------------8-----------|
A|-4---4---------------4-------X-X-|---------------------------------|
E|---------------------------------|-6---6-------------------6---8---|
   1 + + + 2 + + + 3 + + + 4 + + +   1 + + + 2 + + + 3 + + + 4 + + +
                                                                  SLAP 
G|---------------------------------|-------------------------------X-|
D|---------------------4---3-------|---------------------------------|
A|---------------------------------|---------------------------------|
E|-2-------2-------2-----------2---|-4-------4-------4-------4---X---|
   1 + + + 2 + + + 3 + + + 4 + + +   1 + + + 2 + + + 3 + + + 4 + + +

[Pre-verse 1] (SLAP)
G|---------------------------------|---------------------------------|
D|-------------8-------------------|-------------6-------------------|
A|---------------------------------|-----------------------------X---|
E|-6---6---------------------------|-4---4---------------------------|
   1 + + + 2 + + + 3 + + + 4 + + +   1 + + + 2 + + + 3 + + + 4 + + +

G|-------------8-------------------|---------------------------------|
D|---------------------------------|-------------8-------------------|
A|-6---6---------------------------|---------------------------------|
E|---------------------2-------4---|4/6--6---------------------------|
   1 + + + 2 + + + 3 + + + 4 + + +   1 + + + 2 + + + 3 + + + 4 + + +

G|---------------------------------|-------------8-------------------|
D|-------------6-------------------|---------------------------------|
A|---------------------------------|-6---6---------------------------|
E|-4---4-----------------------X---|---------------------------------|
   1 + + + 2 + + + 3 + + + 4 + + +   1 + + + 2 + + + 3 + + + 4 + + +

G|---------------------------------|---------------------------------|
D|-------------8-------6-----------|-------------6-------------------|
A|---------------------------------|---------------------------------|
E|-6---6-----------------------X---|-4---4---------------------------|
   1 + + + 2 + + + 3 + + + 4 + + +   1 + + + 2 + + + 3 + + + 4 + + +

G|-------------8-------------------|---------------------------------|
D|---------------------------------|-------------8-------------------|
A|-6---6---------------------------|-----------------------------X---|
E|-----------------------------X---|-6---6---------------------------|
   1 + + + 2 + + + 3 + + + 4 + + +   1 + + + 2 + + + 3 + + + 4 + + +

G|---------------------------------|-------------8-------------------|
D|-------------6-------------------|---------------------------------|
A|---------------------4-----------|/6---6---------------------------|
E|-4---4-----------------------6---|---------------------------------|
   1 + + + 2 + + + 3 + + + 4 + + +   1 + + + 2 + + + 3 + + + 4 + + +

G|---------------------------------|---------------------------------|
D|-------------8-------------------|-------------6-------------------|
A|---------------------------------|-----------------------------X---|
E|-6---6-----------------------X---|-4---4---------------------------|
   1 + + + 2 + + + 3 + + + 4 + + +   1 + + + 2 + + + 3 + + + 4 + + +

G|-----8---------------------------|---------------------------------|
D|---------------------------------|-------------8-------------------|
A|-6-------------------------------|---------------------------------|
E|-------------2-------4-------X---|-6---6---------------------------|
   1 + + + 2 + + + 3 + + + 4 + + +   1 + + + 2 + + + 3 + + + 4 + + +

[Verse 2] (FINGER)
G|---------------------------------|---------------------------------|
D|-------------6-------------------|-------------6-------------------|
A|---------------------------------|---------------------------------|
E|-4---4---------------4-------X---|-4---4-----------------------X---|
   1 + + + 2 + + + 3 + + + 4 + + +   1 + + + 2 + + + 3 + + + 4 + + +

G|---------------------------------|---------------------------------|
D|-------------3---------------3---|---------------------------------|
A|---------------------3-----------|-3-------------------------------|
E|-1---1---------------------------|-----1-------1-------------------|
   1 + + + 2 + + + 3 + + + 4 + + +   1 + + + 2 + + + 3 + + + 4 + + +

G|-------------6-------------------|---------------------------------|
D|---------------------------------|---------------------------------|
A|-4---4---------------4-----------|-4---4-------4---------------X---|
E|-----------------------------4---|---------------------------------|
   1 + + + 2 + + + 3 + + + 4 + + +   1 + + + 2 + + + 3 + + + 4 + + +

G|-------------8-------------------|---------------------------------|
D|---------------------------------|---------------------------------|
A|-6---6---------------6-----------|-6---6-------6-------------------|
E|-----------------------------6---|-----------------------------X---|
   1 + + + 2 + + + 3 + + + 4 + + +   1 + + + 2 + + + 3 + + + 4 + + +

G|---------------------------------|---------------------------------|
D|-------------4-------3-----------|-4---3---------------------------|
A|-----------------------------4---|-------------------------------X-|
E|-2---2---------------------------|-------------2-------------------|
   1 + + + 2 + + + 3 + + + 4 + + +   1 + + + 2 + + + 3 + + + 4 + + +

G|-------------6-------------------|---------------------------------|
D|-----------------------------X---|-3-------------------------------|
A|-4---4---------------4-----------|---------------------------------|
E|---------------------------------|-------------1-------------------|
   1 + + + 2 + + + 3 + + + 4 + + +   1 + + + 2 + + + 3 + + + 4 + + +

G|---------------------------------|---------------------------------|
D|-------------4-------------------|---------3---4-------------------|
A|-----------------------------X-X-|-----4---------------------------|
E|-2---2---------------2-----------|-2-------------------------------|
   1 + + + 2 + + + 3 + + + 4 + + +   1 + + + 2 + + + 3 + + + 4 + + +

G|---------------------------------|---------------------------------|
D|-------------6-------------------|-------------7-------------------|
A|---------------------------------|-----5---8-----------------------|
E|-4---4---------------4-------5---|-8-------------------------------|
   1 + + + 2 + + + 3 + + + 4 + + +   1 + + + 2 + + + 3 + + + 4 + + +

[Pre-chorus 2] (SLAP)
G|---------------------------------|---------------------------------|
D|-------------8-------------------|-------------8-------------------|
A|---------------------------------|---------------------------------|
E|-6---6---------------6-------X---|-6---6-----------------------X---|
   1 + + + 2 + + + 3 + + + 4 + + +   1 + + + 2 + + + 3 + + + 4 + + +

G|---------------------------------|---------------------------------|
D|-------------3-------------------|-------------3-------------------|
A|---------------------------------|---------------------------------|
E|-1---1---------------1-------X---|-1---1-------------------1/------|
   1 + + + 2 + + + 3 + + + 4 + + +   1 + + + 2 + + + 3 + + + 4 + + +

G|---------------------------------|---------------------------------|
D|-------------6-------------------|-------------6-------------------|
A|---------------------------------|-----------------------------4/--|
E|-4---4---------------4-------X---|-4---4---------------------------|
   1 + + + 2 + + + 3 + + + 4 + + +   1 + + + 2 + + + 3 + + + 4 + + +

G|-------------8-------------------|-------------8-------------------|
D|---------------------------------|---------------------------------|
A|-6---6---------------6-----------|-6---6---------------------------|
E|-----------------------------X---|---------------------------------|
   1 + + + 2 + + + 3 + + + 4 + + +   1 + + + 2 + + + 3 + + + 4 + + +
(FINGER)
G|---------------------------------|---------------------------------|
D|-------------4-------3-----------|-4---3---------------------------|
A|-----------------------------4---|-------------------------------X-|
E|-2---2---------------------------|-------------2-------------------|
   1 + + + 2 + + + 3 + + + 4 + + +   1 + + + 2 + + + 3 + + + 4 + + +

G|-------------6-------------------|-------------10------------------|
D|---------------------------------|---------------------------------|
A|-4---4---------------4-------X---|-8---8---------------------------|
E|---------------------------------|---------------------------------|
   1 + + + 2 + + + 3 + + + 4 + + +   1 + + + 2 + + + 3 + + + 4 + + +

[Chorus 2](FINGER)
G|---------------------------------|---------------------------------|
D|-------------4-------------------|-------------6-------------------|
A|---------------------------------|---------------------------------|
E|-2---2---------------2-----------|-4---4---------------------------|
   1 + + + 2 + + + 3 + + + 4 + + +   1 + + + 2 + + + 3 + + + 4 + + +

G|-------------6-------------------|---------------------------------|
D|---------------------------------|---------8-----------------------|
A|-4---4---------------4-------X-X-|-----------------8---------------|
E|---------------------------------|-6-------------------6-----------|
   1 + + + 2 + + + 3 + + + 4 + + +   1 + + + 2 + + + 3 + + + 4 + + +
                                                                   
G|---------------------------------|---------------------------------|
D|-------------4-------------------|-------------6---------------6---|
A|---------------------------------|---------------------6-----------|
E|-2---2---------------2-------2---|-4---4---------------------------|
   1 + + + 2 + + + 3 + + + 4 + + +   1 + + + 2 + + + 3 + + + 4 + + +

[Outro](SLAP)
G|---------------------------------|---------------------------------|
D|-------------8-------------------|-------------6-------------------|
A|---------------------------------|-----------------------------X---|
E|-6---------------------------X---|-4---4---------------------------|
   1 + + + 2 + + + 3 + + + 4 + + +   1 + + + 2 + + + 3 + + + 4 + + +

G|-------------8-------------------|---------------------------------|
D|---------------------------------|-------------8-------------------|
A|-6---6---------------------------|---------------------------------|
E|---------------------2-------4---|-6---6---------------------------|
   1 + + + 2 + + + 3 + + + 4 + + +   1 + + + 2 + + + 3 + + + 4 + + +

G|---------------------------------|-------------8-------------------|
D|-------------6-------------------|---------------------------------|
A|---------------------------------|-6---6---------------------------|
E|-4---4-----------------------X---|---------------------------------|
   1 + + + 2 + + + 3 + + + 4 + + +   1 + + + 2 + + + 3 + + + 4 + + +

G|---------------------------------|---------------------------------|
D|-------------8-------6-----------|-------------6-------------------|
A|---------------------------------|---------------------------------|
E|-6---6-----------------------X---|-4---4---------------------------|
   1 + + + 2 + + + 3 + + + 4 + + +   1 + + + 2 + + + 3 + + + 4 + + +

G|-------------8-------------------|---------------------------------|
D|---------------------------------|-------------8-------------------|
A|-6---6---------------------------|-----------------------------X---|
E|-----------------------------X---|-6---6---------------------------|
   1 + + + 2 + + + 3 + + + 4 + + +   1 + + + 2 + + + 3 + + + 4 + + +

G|---------------------------------|-------------8-------------------|
D|-------------6-------------------|---------------------------------|
A|---------------------4-----------|/6---6---------------------------|
E|-4---4-----------------------6---|---------------------------------|
   1 + + + 2 + + + 3 + + + 4 + + +   1 + + + 2 + + + 3 + + + 4 + + +

G|---------------------------------|---------------------------------|
D|-------------8-------------------|-------------6-------------------|
A|---------------------------------|-----------------------------X---|
E|-6---6---------------------------|-4---4---------------------------|
   1 + + + 2 + + + 3 + + + 4 + + +   1 + + + 2 + + + 3 + + + 4 + + +

G|-------------8-------------------|---------------------------------|
D|---------------------6-------8---|-------------8-------------------|
A|-6---6---------------------------|---------------------------------|
E|---------------------------------|-6---6---------------------------|
   1 + + + 2 + + + 3 + + + 4 + + +   1 + + + 2 + + + 3 + + + 4 + + +

G|---------------------------------|-------------8-------------------|
D|-------------6-------------------|---------------------------------|
A|-----------------------------X---|-6---6---------------------------|
E|-4---4---------------------------|---------------------------------|
   1 + + + 2 + + + 3 + + + 4 + + +   1 + + + 2 + + + 3 + + + 4 + + +

G|---------------------------------|---------------------------------|
D|-------------8-------6-----------|-------------6-------------------|
A|---------------------------------|---------------------------------|
E|-6---6-----------------------X---|-4---4---------------------------|
   1 + + + 2 + + + 3 + + + 4 + + +   1 + + + 2 + + + 3 + + + 4 + + +

G|-------------8-------------------|---------------------------------|
D|---------------------------------|-------------8-------------------|
A|-6---6---------------------------|---------------------------------|
E|---------------------------------|-6---6-----------------------X---|
   1 + + + 2 + + + 3 + + + 4 + + +   1 + + + 2 + + + 3 + + + 4 + + +

G|---------------------------------|-------------8-------------------|
D|-------------6-------------------|---------------------------------|
A|---------------------4-----------|/6---6---------------------------|
E|-4---4-----------------------6---|---------------------------------|
   1 + + + 2 + + + 3 + + + 4 + + +   1 + + + 2 + + + 3 + + + 4 + + +

G|---------------------------------|---------------------------------|
D|-------------8-------------------|-------------6-------------------|
A|-----------------------------X---|---------------------------------|
E|-6---6---------------------------|-4---4-----------------------X---|
   1 + + + 2 + + + 3 + + + 4 + + +   1 + + + 2 + + + 3 + + + 4 + + +

G|-----8---------------------------|---------------------------------|
D|-------------8-------------------|-------------8-------------------|
A|-6-------------------------------|---------------------------------|
E|---------6-------X---2-------4---|-6---6---------------------------|
   1 + + + 2 + + + 3 + + + 4 + + +   1 + + + 2 + + + 3 + + + 4 + + +

G|---------------------------------|-------------8-------------------|
D|-------------6-------------------|---------------------------------|
A|-----------------------------X---|-6---6---------------------------|
E|-4---4---------------------------|---------------------------------|
   1 + + + 2 + + + 3 + + + 4 + + +   1 + + + 2 + + + 3 + + + 4 + + +

G|---------------------------------|
D|-----8-------6-------------------|
A|---------------------------------|
E|-6-------X-------------------4---|
   1 + + + 2 + + + 3 + + + 4 + + +  

************************************

| X  Dead note
| h  Hammer-on
| /  Slide up

************************************ 

            
            
Suggest correction
Creating personal tab
Creating personal tab
You can edit any tab online and save it as your Personal.

You can edit, replace or remove any tab part or add personal notes – all changes will be seen only by you.

Personal tabs can be accessed anytime from any device, even offline.
Learn more »
Give kudos to tab author, rate the tab!
1 2 3 4 5
comments
print report bad tab
guest
You may want to rate the tab now too:
select rating
Wanna post a correction for this tab? Suggest correction