Oops, an error
Loading. Please wait.

Because Youre Young bass

79 views 1 this week
no commentswrite comment
1 2 3 4 5
2 more votes to show rating
add to favorites
×
Save as Personal and add changes to this tab that will be seen only by you. Learn more ›
×
You can save this tab as Personal to edit and correct it or add notes. All changes will be seen only by you. Learn more »
launch autoscroll
font size
0
reset
guitar tuner
edit
Autoscroll
slow
fast
+/-
esc
set tempo
stop
Author
Difficulty
Artist : David Bowie
Album : Scary Monsters (And Super Creeps)
Song : Because You're Young


[Intro] 0:16 - 0:17
 4/4 
G|----------------|----------------|----------------|----------------|
D|----------------|----------------|----------------|----------------|
A|----------------|----------3/7\3-|3-3-3---3-----3-|3-3-3---3-3/10--|
E|0------(0)------|0-------0-------|----------------|----------------|
  1 + 2 + 3 + 4 +  1 + 2 + 3 + 4 +  1 + 2 + 3 + 4 +  1 + 2 + 3 + 4 + 
 
G|----------------|----------------|----------------|----------------|
D|----------------|----------------|----------------|----------------|
A|------7---------|----------3/7---|3-3-3-3-3-----2-|3-3-2-2-0--/10\-|
E|0-------0-------|0-------0-------|----------------|----------------|
  1 + 2 + 3 + 4 +  1 + 2 + 3 + 4 +  1 + 2 + 3 + 4 +  1 + 2 + 3 + 4 +  

G|----------------|----------------|5-5-5-5-5r--4h5p4---|5-5-4-4-2r--4h5p4---|
D|----------------|--------------5-|--------------------|--------------------|
A|--7-5---5h7-----|--7-5---5h7-----|--------------------|--------------------|
E|0-----7-------x-|0-----7---------|--------------------|--------------------|
  1 + 2 + 3 + 4 +  1 + 2 + 3 + 4 +  1 + 2 + 3 + 4   +    1 + 2 + 3 + 4   +   
 
G|----------------|----------------|5-5-5-5-5r--4h5p4---|5-5-4r--2r--4h5-----|
D|----------------|--------------5-|--------------------|--------------------|
A|--7-5---5h7-----|--7-5---5h7-----|--------------------|--------------------|
E|0-----7-------x-|0-----7---------|--------------------|--------------------|
  1 + 2 + 3 + 4 +  1 + 2 + 3 + 4 +  1 + 2 + 3 + 4   +    1 + 2 + 3 + 4   +    


[Verse]

G|----------------|----------------|-------------7h9p7--|----------------|
D|--5---5-5-------|--5---5---------|--------------------|----------------|
A|----------------|----------------|5-5-5-5-5r----------|4-4-4r----------|
E|3---3-------3---|3---3-------3---|--------------------|----------------|
  1 + 2 + 3 + 4 +  1 + 2 + 3 + 4 +  1 + 2 + 3 + 4   +    1 + 2 + 3 + 4 + 
 
G|------------5h7p5---|----------------|----------------|----------------|
D|--------------------|----------------|----------------|----------------|
A|3-3-3-3-3r----------|2-2-2r----2---2-|----------------|----------------|
E|--------------------|----------------|0-------0-------|0------(0)------|
  1 + 2 + 3 + 4   +    1 + 2 + 3 + 4 +  1 + 2 + 3 + 4 +  1 + 2 + 3 + 4 + 
 
G|----------------|----------------|-------------7h9p7--|----------------|
D|--5---5-5-------|--5---5---------|--------------------|----------------|
A|----------------|----------------|5-5-5-5-5r----------|4-4-4r----------|
E|3---3-------3---|3---3-------3---|--------------------|----------------|
  1 + 2 + 3 + 4 +  1 + 2 + 3 + 4 +  1 + 2 + 3 + 4   +    1 + 2 + 3 + 4 + 
 
G|------------5h7p5---|----------------|----------------|----------------|
D|--------------------|----------------|----------------|----------------|
A|3-3-3-3-3r----------|2-2-2r----2---2-|--7-5---5h7-----|--7-5---5h7-----|
E|--------------------|----------------|0-----7-------7-|0-----7---------|
  1 + 2 + 3 + 4   +    1 + 2 + 3 + 4 +  1 + 2 + 3 + 4 +  1 + 2 + 3 + 4 + 


[Pre-Chorus]

G|----------------|----------------|----------------|----------------|
D|----------------|----------------|----------------|-------/7-5-----|
A|----------------|----------------|-------/9-7-----|------------9-7-|
E|3r--3r--3r--3r--|3r--3r--3r--3r--|5-----5---------|5-----5---------|
  1 + 2 + 3 + 4 +  1 + 2 + 3 + 4 +  1 + 2 + 3 + 4 +  1 + 2 + 3 + 4 + 
 
G|----------------|----------------|----------------|----------------|
D|----------------|-------/7-5-4---|----------------|-------/7-5-----|
A|-------/9-7-----|--------------7-|-------/9-7-----|------------9-7-|
E|8-----8---------|8-----8---------|5-----5---------|5-----5---------|
  1 + 2 + 3 + 4 +  1 + 2 + 3 + 4 +  1 + 2 + 3 + 4 +  1 + 2 + 3 + 4 +  

G|----------------|----------------|
D|----------------|----------------|
A|-------/9-7-----|5r--------------|
E|8-----8---------|----------------|
  1 + 2 + 3 + 4 +  1 + 2 + 3 + 4 +  


[Chorus]

G|----------------|----------------|----------------|----------------|
D|----5-----------|----------------|----------------|----------------|
A|------2h3-2-2h3-|3-----2-2---0---|0---x-2h3-2h3---|----------------|
E|3---------------|----------------|--------------0-|1-----1-1---3---|
  1 + 2 + 3 + 4 +  1 + 2 + 3 + 4 +  1 + 2 + 3 + 4 +  1 + 2 + 3 + 4 + 

G|----------------|----------------|----------------|----------------|
D|----5-----------|----------------|----------------|----------------|
A|------2h3-2-2h3-|3-----3-3---2---|0---x-2h3-2h3---|--------3-------|
E|3---------------|----------------|r-------------0-|1-----1---------|
  1 + 2 + 3 + 4 +  1 + 2 + 3 + 4 +  1 + 2 + 3 + 4 +  1 + 2 + 3 + 4 +  

G|----------------|----------------|----------------|----------------|
D|----------------|----------------|----------------|----------------|
A|5r--2r------2r--|5r--2r------2r--|3------(3)------|3~--------------|
E|--------3r------|--------3r------|----------------|----------------|
  1 + 2 + 3 + 4 +  1 + 2 + 3 + 4 +  1 + 2 + 3 + 4 +  1 + 2 + 3 + 4 +  

G|----------------|----------------|----------------|--------5-------|
D|----------------|----------------|----------------|----------------|
A|3~--------------|3------/15------|3~--------------|3---------------|
E|----------------|----------------|----------------|--------------3-|
  1 + 2 + 3 + 4 +  1 + 2 + 3 + 4 +  1 + 2 + 3 + 4 +  1 + 2 + 3 + 4 +  

G|----------------|----------------|
D|----------------|----------------|
A|3~--------------|5~---------h7---|
E|----------------|----------------|
  1 + 2 + 3 + 4 +  1 + 2 + 3 + 4 +  
 

[Bridge]

G|----------------|----------------|5-5-5-5-5r--4h5p4---|5-5-4-4-2r--4h5p4---|
D|----------------|--------------5-|--------------------|--------------------|
A|--7-5---5h7-----|--7-5---5h7-----|--------------------|--------------------|
E|0-----7-------7-|0-----7---------|--------------------|--------------------|
  1 + 2 + 3 + 4 +  1 + 2 + 3 + 4 +  1 + 2 + 3 + 4   +    1 + 2 + 3 + 4   +   
 
G|----------------|----------------|5-5-5-5-5r--4h5p4---|5-5-4-4-2r--4h5-----|
D|----------------|--------------5-|--------------------|--------------------|
A|--7-5---5h7-----|--7-5---5h7-----|--------------------|--------------------|
E|0-----7-------7-|0-----7---------|--------------------|--------------------|
  1 + 2 + 3 + 4 +  1 + 2 + 3 + 4 +  1 + 2 + 3 + 4   +    1 + 2 + 3 + 4   +    


[Verse]
                                                 P
G|----------------|----------------|-------------7h9p7--|----------------|
D|--5---5-5-------|--5---5---------|--------------------|----------------|
A|----------------|----------------|5-5-5-5-5r----------|4-4-4r----------|
E|3---3-------3---|3---3-------3---|--------------------|----------------|
  1 + 2 + 3 + 4 +  1 + 2 + 3 + 4 +  1 + 2 + 3 + 4   +    1 + 2 + 3 + 4 + 
              P 
G|------------5h7p5---|----------------|----------------|----------------|
D|--------------------|----------------|----------------|----------------|
A|3-3-3-3-3r----------|2-2-2r----2---2-|----------------|----------------|
E|--------------------|----------------|0-------0-------|0-------0-------|
  1 + 2 + 3 + 4   +    1 + 2 + 3 + 4 +  1 + 2 + 3 + 4 +  1 + 2 + 3 + 4 + 
                                                 P
G|----------------|----------------|-------------7h9p7--|----------------|
D|--5---5-5-------|--5---5---------|--------------------|----------------|
A|----------------|----------------|5-5-5-5-5r----------|4-4-4r----------|
E|3---3-------3---|3---3-------3---|--------------------|----------------|
  1 + 2 + 3 + 4 +  1 + 2 + 3 + 4 +  1 + 2 + 3 + 4   +    1 + 2 + 3 + 4 + 
              P
G|------------5h7p5---|----------------|----------------|----------------|
D|--------------------|----------------|----------------|----------------|
A|3-3-3-3-3r----------|2-2-2r----2---2-|--7-5---5h7-----|7---5---5h7-----|
E|--------------------|----------------|0-----7-------7-|------7---------|
  1 + 2 + 3 + 4   +    1 + 2 + 3 + 4 +  1 + 2 + 3 + 4 +  1 + 2 + 3 + 4 + 


[Pre-Chorus]

G|----------------|----------------|----------------|----------------|
D|----------------|----------------|----------------|-------/7-5-----|
A|----------------|----------------|-------/9-7-----|------------9-7-|
E|3r--3r--3r--3r--|3r--3r--3r--3r--|5-----5---------|5-----5---------|
  1 + 2 + 3 + 4 +  1 + 2 + 3 + 4 +  1 + 2 + 3 + 4 +  1 + 2 + 3 + 4 + 
 
G|----------------|----------------|----------------|----------------|
D|----------------|-------/7-5-4---|----------------|-------/7-5-----|
A|-------/9-7-----|--------------7-|-------/9-7-----|------------9-7-|
E|8-----8---------|8-----8---------|5-----5---------|5-----5---------|
  1 + 2 + 3 + 4 +  1 + 2 + 3 + 4 +  1 + 2 + 3 + 4 +  1 + 2 + 3 + 4 +  

G|----------------|----------------|
D|----------------|----------------|
A|-------/9-7---3-|5r--------------|
E|8-----8---------|----------------|
  1 + 2 + 3 + 4 +  1 + 2 + 3 + 4 +  


[Chorus]

G|----------------|----------------|----------------|----------------|
D|----5-----------|----------------|----------------|----------------|
A|------2h3-2-2h3-|3-----3-3---2---|0---x-2h3-2h3---|----------------|
E|3---------------|----------------|--------------0-|1-----1-1---3---|
  1 + 2 + 3 + 4 +  1 + 2 + 3 + 4 +  1 + 2 + 3 + 4 +  1 + 2 + 3 + 4 + 

G|----------------|----------------|----------------|----------------|
D|----5-----------|----------------|----------------|----------------|
A|------2h3-2-2h3-|3-----------2---|0---x-2h3-2h3---|--------3-------|
E|3---------------|----------------|--------------0-|1-----1---------|
  1 + 2 + 3 + 4 +  1 + 2 + 3 + 4 +  1 + 2 + 3 + 4 +  1 + 2 + 3 + 4 +  

G|----------------|----------------|----------------|----------------|
D|----------------|----------------|----------------|----------------|
A|5r--2r------2r--|5r--2r------2r--|3------(3)------|3------(3)------|
E|--------3r------|--------3r------|----------------|----------------|
  1 + 2 + 3 + 4 +  1 + 2 + 3 + 4 +  1 + 2 + 3 + 4 +  1 + 2 + 3 + 4 +  

G|----------------|----------------|----------------|----------------|
D|----------------|----------------|----------------|----------------|
A|3-------3-------|3-------3-------|3-------3-------|3-------3-------|
E|----------------|--------------3-|----------------|----------------|
  1 + 2 + 3 + 4 +  1 + 2 + 3 + 4 +  1 + 2 + 3 + 4 +  1 + 2 + 3 + 4 +  

G|----------------|----------------|
D|----------------|----------------|
A|3-------3-------|5-------5-3h5-2-|
E|----------------|----------------|
  1 + 2 + 3 + 4 +  1 + 2 + 3 + 4 +  


[Outro]
 
G|----------------|----------------|----------------|----------------|
D|----------------|----------------|----------------|----------------|
A|3-------3-------|3------/15------|3-------3-------|3-------3-------|
E|----------------|----------------|----------------|------------3---|
  1 + 2 + 3 + 4 +  1 + 2 + 3 + 4 +  1 + 2 + 3 + 4 +  1 + 2 + 3 + 4 +  
 
G|----------------|------------5---|----------------|----------------|
D|----------------|----------------|----------------|----------------|
A|3-----3-3-----3-|3-----3-3-------|3-----3-3-----3-|5----5-5----5---|
E|----------------|--------------3-|----------------|----------------|
  1 + 2 + 3 + 4 +  1 + 2 + 3 + 4 +  1 + 2 + 3 + 4 +  1 + 2 + 3 + 4 +  
 
G|----------------|----------------|----------------|------------5---|
D|----------------|----------------|----------------|----------------|
A|3-----3-3-----3-|3-----3-3-3---3-|3-3---3-3-3---3-|3-3---3-3-3-----|
E|----------------|----------------|----------------|--------------3-|
  1 + 2 + 3 + 4 +  1 + 2 + 3 + 4 +  1 + 2 + 3 + 4 +  1 + 2 + 3 + 4 +  
 
G|----------5-----|----------5-----|----------------|----------------|
D|----------------|----------------|----------------|--------------5-|
A|3-3---3-3-----3-|3-3---3-3-----3-|3-3---3-3-3---3-|5-5-5-5-5-5-5---|
E|----------------|----------------|----------------|----------------|
  1 + 2 + 3 + 4 +  1 + 2 + 3 + 4 +  1 + 2 + 3 + 4 +  1 + 2 + 3 + 4 +  
 
G|5---------------|5---------------|----------------|------------2---|
D|------------5h7-|----------------|----------------|----------------|
A|------3-3-------|------3-3-----3-|3-3---3-3-3---3-|3-3---3-3-3-----|
E|----------------|----------------|----------------|----------------|
  1 + 2 + 3 + 4 +  1 + 2 + 3 + 4 +  1 + 2 + 3 + 4 +  1 + 2 + 3 + 4 +  
 
G|----------------|----------------|----------------|----7/9-7-------|
D|----------------|----------------|----------------|--7---------7---|
A|3-3---3-3-3---3-|3-3---3-3-3---3-|3-3---3-3-3---3/|5---------------|
E|----------------|----------------|----------------|----------------|
  1 + 2 + 3 + 4 +  1 + 2 + 3 + 4 +  1 + 2 + 3 + 4 +  1 + 2 + 3 + 4 +  
 

[Shortest Guitar Solo Fade Out Ever]

G|----------------|----------------|----------------|
D|----------------|----------------|----------------|
A|3---3-----0-2-3-|5-----5-5-------|3---------------| fade out
E|--------3-------|------------3---|----------------|
  1 + 2 + 3 + 4 +  1 + 2 + 3 + 4 +  1 + 2 + 3 + 4 +  
 

************************************

| x   Dead note
| (n) Ghost note
| h   Hammer-on
| p   Pull-off
| r   Release
| /   Slide up
| \   Slide down
| ~   Vibrato
| P   Pop

************************************
Suggest correction
Creating personal tab
Creating personal tab
You can edit any tab online and save it as your Personal.

You can edit, replace or remove any tab part or add personal notes – all changes will be seen only by you.

Personal tabs can be accessed anytime from any device, even offline.
Learn more »
Give kudos to tab author, rate the tab!
1 2 3 4 5
comments
print report bad tab
guest
You may want to rate the tab now too:
select rating
Wanna post a correction for this tab? Suggest correction