Oops, an error
Loading. Please wait.

China Girl bass

version 2
version 2

Whole song

Interactive

15,644 views 54 this week
2 commentsread comments
1 2 3 4 5
x 12
add to favorites
×
Save as Personal and add changes to this tab that will be seen only by you. Learn more ›
×
You can save this tab as Personal to edit and correct it or add notes. All changes will be seen only by you. Learn more »
launch autoscroll
font size
0
reset
guitar tuner
edit
Autoscroll
slow
fast
+/-
esc
set tempo
stop
Author
Difficulty
intermediate
[Intro]

                                      G        G        Am       Am
G:--------|--------|--------|--------|--------|--------|--------|--------|
D:--------|--------|--------|--------|----5---|----5---|--------|--------|
A:--------|--------|--------|--------|-20----2|--20----|--------|------02|
E:--------|--------|--------|--------|3--3--3-|3-----23|535-5---|535-5---|
  G        G        Am       Am
G:--------|--------|--------|--------|
D:----5---|----5---|--------|--------|
A:-20----2|--20----|--------|------02|
E:3--3--3-|3-----23|535-5---|535-5---|


[Verse]

  G                                Am
    I could escape this feeling      With my China girl
  G                                Am
    I feel a wreck without my        Little China girl
  Em                               G
    I hear her heart beating         Loud as thunder
  Am                               B
    Saw the stars crashing
  G        G        Am       Am       G        G        Am       Am
G:--------|--------|--------|--------|--------|--------|--------|--------|
D:--------|--------|--------|--------|--------|--------|--------|--------|
A:--------|--------|0--00---|0--00023|--------|--------|0--00---|0--00023|
E:3--33---|3--33-33|--------|--------|3--33---|3--33-33|--------|--------|

  Em       Em       G        G        Am       Am       B        B
G:--------|--------|--------|--------|--------|--------|--------|--------|
D:--------|--------|--------|--------|--------|--------|--------|--------|
A:--------|------20|--------|--------|0-------|0------0|2~~~~~~~~~~~-2023|
E:0-------|0-------|3------3|3------3|-------3|--------|--------|--------|


[Verse]

  G                                   Am
    I'm mess without                 My little China girl
  G                                   Am
    Wake up in the morning where's my   Little China girl
  Em                               G
    I hear her heart's beating       Loud as thunder
  Am                               B
    Saw their stars crashing       Down

  G        G        Am       Am       G        G        Am       Am
G:--------|--------|--------|--------|--------|--------|--------|--------|
D:--------|--------|--------|--------|--------|--------|--------|--------|
A:--------|--------|0--00---|0--00023|--------|--------|0--00---|0--00023|
E:3--33---|3--33-33|--------|--------|3--33---|3--33-33|--------|--------|

  Em       Em       G        G        Am       Am       B        B
G:--------|--------|--------|--------|--------|--------|--------|--------|
D:--------|--------|--------|--------|--------|--------|--------|--------|
A:--------|------20|--------|--------|0-----0-|0------0|2-------|22-22023|
E:0-------|0-------|3------3|3------3|-----3-3|--------|--------|--------|

  G                               F
    I'm feeling tragic like I'm   Marlon Brando
  Em                        D
    When I look at my China girl
  G                               F
    I could pretend that nothing    Really meant too much
  Em                        D
    When I look at my China girl

  G        G        F        F        Em       Em       D        D
G:--------|--------|--------|--------|--------|--------|--------|--------|
D:--------|--------|--------|--------|--------|--------|0-------|0-------|
A:--------|--------|--------|--------|--------|--------|--------|--------|
E:3-------|3-------|1-------|1-------|0-------|0-------|--------|--------|

  G        G        F        F        Em       Em       D        D
G:--------|--------|--------|--------|--------|--------|--------|--------|
D:--------|--------|--------|--------|--------|--------|0-------|0-------|
A:--------|--------|--------|--------|--------|--------|--------|--------|
E:3-------|3-------|1-------|1-------|0-------|0-------|--------|--------|


[Instrumental]

  Em       Em       D        D        C        C        B        B
G:--------|--------|--------|--------|---0----|---0----|--------|--------|
D:--------|--------|0-0-0-0-|0-0-0---|-02-----|-02-----|--------|--------|
A:---2----|---2----|--------|------4-|3---3-3-|3---3-3-|2-2-2-2-|2-2-2-2-|
E:023-0-0-|023-0-0-|--------|--------|--------|--------|--------|--------|


[Verse]

  Em                       D
    I stumble into town      Just like a sacred cow
  C                                   B
  Visions of swastikas in my head     Plans for everyone
  Em                           D      C      B
  It's in the white of my eyes

  Em       Em       D        D        C        C        B        B
G:--------|--------|--------|--------|---0----|---0----|--------|--------|
D:--------|--------|0-0-0-0-|0-0-0---|-02-----|-02-----|--------|--------|
A:---2----|---2----|--------|------4-|3---3-3-|3---3-3-|2-2-2-2-|2-2-2-2-|
E:023-0-0-|023-0-0-|--------|--------|--------|--------|--------|--------|

  Em       Em       D        D        C        C        B        B
G:--------|--------|--------|--------|---0----|---0----|--------|--------|
D:--------|--------|0-0-0-0-|0-0-0---|-02-----|-02-----|--------|--------|
A:---2----|---2----|--------|------4-|3---3-3-|3---3-3-|2-2-2-2-|2-2-2-2-|
E:023-0-0-|023-0-0-|--------|--------|--------|--------|--------|--------|


[Verse]

  Em                                 D
    My little China girl               You shouldn't mess with me
  C                          B
    I'll ruin everything you are        (you know)
  Em                                 D
    I'll give you television           I'll give you eyes of blue
  C                                  B
    I'll give you a man who wants to rule the world

  Em       Em       D        D        C        C        B        B
G:--------|--------|--------|--------|---0----|---0----|--------|--------|
D:--------|--------|0-0-0-0-|0-0-0---|-02-----|-02----0|--------|--------|
A:---2----|---2----|--------|------4-|3---3-3-|3---3-3-|2-2-2-2-|2-2-2-2-|
E:023-0-0-|023-0-0-|--------|--------|--------|--------|--------|--------|

  Em       Em       D        D        C        C        B        B
G:--------|--------|--------|--------|---0----|---0----|--------|--------|
D:--------|--------|0-0-0-0-|0-0-0---|-02-----|-02-----|--------|--------|
A:---2----|---2----|--------|------4-|3---3-3-|3---3-3-|2-2-2-2-|2-2-2-2-|
E:023-0-0-|023-0-0-|--------|--------|--------|--------|--------|--------|

  Em                                 D
    And when I get excited             My little China girl says
  C                            B
    Oh baby just you shut your mouth          She says ...

  Em       Em       D        D        C        C        B        B
G:--------|--------|--------|--------|--------|--------|--------|--------|
D:22222222|22222222|00000000|00000000|--------|--------|--------|--------|
A:--------|--------|--------|--------|33333333|33333333|22222222|22222222|
E:--------|--------|--------|--------|--------|--------|--------|--------|


[Instrumental]

  Em       D      C      B             Em       D      C      B
    shhh ...                She says     Shhh ...

  Em       Em       D        D        C        C        B        B
G:--------|--------|--------|--------|---0----|---0----|--------|--------|
D:--------|--------|0-0-0-0-|0-0-0---|-02-----|-02-----|--------|--------|
A:---2----|---2----|--------|------4-|3---3-3-|3---3-3-|2-2-2-2-|2-2-2-2-|
E:023-0-0-|023-0-0-|--------|--------|--------|--------|--------|--------|

[CODA] (play this line twice)
  Em                                 D
    And when I get excited             My little China girl says
  C                            B
    Oh baby just you shut your mouth          She says ...

  Em       Em       D        D        C        C        B        B
G:--------|--------|--------|--------|--------|--------|--------|--------|
D:22222222|22222222|00000000|00000000|--------|--------|--------|--------|
A:--------|--------|--------|--------|33333333|33333333|22222222|22222222|
E:--------|--------|--------|--------|--------|--------|--------|--------|

  (play this line twice)
  Em       D      C      B             Em       D      C      B
    shhh ...                She says     Shhh ...

  Em       Em       D        D        C        C        B        B
G:--------|--------|--------|--------|---0----|---0----|--------|--------|
D:--------|--------|0-0-0-0-|0-0-0---|-02-----|-02-----|--------|--------|
A:---2----|---2----|--------|------4-|3---3-3-|3---3-3-|2-2-2-2-|2-2-2-2-|
E:023-0-0-|023-0-0-|--------|--------|--------|--------|--------|--------|

(Repeat G-Am part of [INTRO] and fade)
  G        G        Am       Am
G:--------|--------|--------|--------|--------|--------|--------|--------|
D:----5---|----5---|--------|--------|----5---|----5---|--------|--------|
A:-20----2|--20----|--------|------02|-20----2|--20----|--------|------02|
E:3--3--3-|3-----23|535-5---|535-5---|3--3--3-|3-----23|535-5---|535-5---|



************************************

| ~  Vibrato

************************************

Tabbed by Michael Oxner
moxner@nbnet.nb.ca
January 5th, 2012

            
            
Suggest correction
Creating personal tab
Creating personal tab
You can edit any tab online and save it as your Personal.

You can edit, replace or remove any tab part or add personal notes – all changes will be seen only by you.

Personal tabs can be accessed anytime from any device, even offline.
Learn more »
comments
print report bad tab
2 comments total.
0 reply
leograssi90 501 Sep 02, 2014 02:44 AM, edited at 06:45 am

I would only suggest a little, uninfluential thing: the groovy part that comes during the instrumental should be like this.G:--------|--------|--------|--------|---0----|---0----|--------|-----------|D:--------|--------|0-0-0-0-|0-0-0---|-02-----|-02-----|--------|-----------|A:---2----|---2----|--------|------4-|3---3-3-|3---3-3-|2-2-2-2-|2-2-2-----|E:023-0-0-|023-0-0-|--------|--------|--------|--------|--------|-----5-3-2-|I would also suggest an alternative. These are the same notes, but I play it this way 'cause my fingers love it the most! :-DG:--------|--------|--------|--------|----------|----------|--------|------------|D:--------|--------|--------|--------|---2-5----|---2-5----|--------|------------|A:---2----|---2----|5-5-5-5-|5-5-5-4-|3-5---3-3-|3-5---3-3-|2-2-2-2-|2-2-2-------|E:023-0-0-|023-0-0-|--------|--------|----------|----------|--------|------5-3-2-|Ah, and I also think that there's no 2 on the E string in the intro/outro riff, even if it suits damn well! Great tab, 5 stars!

0 reply
leograssi90 501 Sep 02, 2014 02:50 AM

Ok, I made quite a mess! I meant:

G:--------|--------|--------|--------|---0----|---0----|--------|-----------|
D:--------|--------|0-0-0-0-|0-0-0---|-02-----|-02-----|--------|-----------|
A:---2----|---2----|--------|------4-|3---3-3-|3---3-3-|2-2-2-2-|2-2-2------|
E:023-0-0-|023-0-0-|--------|--------|--------|--------|--------|------5-3-2|

guest
You may want to rate the tab now too:
select rating
Wanna post a correction for this tab? Suggest correction