Oops, an error
Loading. Please wait.

Cracked Actor Tab

version 1
version 1

Whole song

18,735 views 18 this week
2 commentsread comments
1 2 3 4 5
x 15
add to favorites
launch autoscroll
font size
0
reset
how to read this tab
guitar tuner
×
Best way to learn
"Cracked Actor"
Autoscroll
slow
fast
+/-
esc
set tempo
stop
Cracked Actor-David Bowie
e|----------------------------------------------------------------------------|
B|----0.-------0.---(x2)-then-play this twice last time end with B------------|
G|----1.-------1.--1----------------------------------------------------------|
D|2---2.---2-2-2.--2----------------2-------------3-------------5-----------5-|
A|2--------2-2-----2----2-2-4---2---2-3-3-5---3---3-5---7---5---5-5-5-7---5-5-|
E|0--------0-0-----0----0-0-0---0-----1-1-1---1-----3---3---3-----3-3-3---3---|
                                                                  (B)I've come

|F                              |Am                      |
on a few years           from my Hollywood Highs      The
|E                              |D                       |
 best of the last, the cleanest star they ever had    I'm
|F                              |Am                      |
 stiff on my legend        the   films that I made    For-
|E                              |                        |
-get that I'm fifty cause you just got paid

(The A and the F#7 in the chorus have suspends first and pulled off)

|Bm                             |A                       |
 Crack, baby, crack             show me your real
|G                              |F#7                     |
 Smack, baby, smack       is that all that you feel
|Bm                             |A                       |
 Suck, baby, suck                give me your head
|G                              |F#7                     |
Before you start professing ...    knocking me dead
|E  (as in intro)
  oh stay
Suggest correction
comments
print report bad tab
2 comments total.
0 reply
Nxt_JoeWalsh 10 Aug 13, 2005 08:00 PM

Great Tab. 5 stars *****

0 reply
victor_vbr 34 Nov 12, 2015 01:52 PM, edited at 06:53 pm

There's this slide below right at the end of the intro tab
|---------------
|---------------
|---------------
|---------------
|--5/8-8-8-8-8-8
|--3/6-6-6-6-6-6

guest
You may want to rate the tab now too:
select rating
Wanna post a correction for this tab? Suggest correction