Oops, an error
Loading. Please wait.

Dancing Out In Space bass

19 views 6 this week
no commentswrite comment
1 2 3 4 5
3 more votes to show rating
add to favorites
×
Save as Personal and add changes to this tab that will be seen only by you. Learn more ›
×
You can save this tab as Personal to edit and correct it or add notes. All changes will be seen only by you. Learn more »
launch autoscroll
font size
0
reset
guitar tuner
edit
Autoscroll
slow
fast
+/-
esc
set tempo
stop
Bowie´s been a part of me almost all my life. His death encouraged me to write down these bass tabs
which I'll upload from time to time.
Tabbed by Leo Chiurco

Tip: Count at around 85 bpm

Starts at 0:10
[Intro]
G|---------------------------------|
D|---------------------------------|
A|-----------------------------5/--|
E|---------------------------------|
   1 + + + 2 + + + 3 + + + 4 + + +  

G|---------------------------------|---------------------------------|
D|---------------------------------|---------------------------------|
A|10----------------------h12\-----|-7-----------------------5/------| (x4)
E|---------------------------------|---------------------------------|
   1 + + + 2 + + + 3 + + + 4 + + +   1 + + + 2 + + + 3 + + + 4 + + +

[Verse 1] "Cutting through the water ..."
G|---------------------------------|---------------------------------|
D|---------------------------------|---------------------------------|
A|10----------------------h12\-----|-7-----------------------5/------|
E|---------------------------------|---------------------------------|
   1 + + + 2 + + + 3 + + + 4 + + +   1 + + + 2 + + + 3 + + + 4 + + +

G|---------------------------------|---------------------------------|
D|---------------------------------|---------------------------------|
A|10----------------------h12\-----|-7-----------------------5\------|
E|---------------------------------|---------------------------------|
   1 + + + 2 + + + 3 + + + 4 + + +   1 + + + 2 + + + 3 + + + 4 + + +

G|---------------------------------|---------------------------------|
D|---------------------------------|---------------------------------|
A|-3-----------------------2-------|-0-----------------------5\------|
E|---------------------------------|---------------------------------|
   1 + + + 2 + + + 3 + + + 4 + + +   1 + + + 2 + + + 3 + + + 4 + + +

G|---------------------------------|---------------------------------|
D|---------------------------------|---------------------------------|
A|10----------------------h12\-----|-7-----------------------5-------|
E|---------------------------------|---------------------------------|
   1 + + + 2 + + + 3 + + + 4 + + +   1 + + + 2 + + + 3 + + + 4 + + +

[Chorus 1]
G|---------------------------------|---------------------------------|
D|---------------------8---7-------|---------------------8---7-------|
A|-------------10--------------10--|-------------10--------------10--| (x4)
E|-8---8---8-----8---8-------------|-8---8---8-----8---8-------------|
   1 + + + 2 + + + 3 + + + 4 + + +   1 + + + 2 + + + 3 + + + 4 + + +

G|---------------------------------|
D|---------------------------------|
A|---------11\-------------13\-----|
E|-9--------------/11--------------|
   1 + + + 2 + + + 3 + + + 4 + + +  

G|---------------------------------|---------------------------------|
D|---------------------8---7-------|---------------------8---7-------|
A|-------------10--------------10--|-------------10--------------10--| (x2)
E|-8---8---8-----8---8-------------|-8---8---8-----8---8-------------|
   1 + + + 2 + + + 3 + + + 4 + + +   1 + + + 2 + + + 3 + + + 4 + + +

G|---------------------------------|
D|---------------------13----------|
A|---------11--------------13\-----|
E|-9-----------9--/11--------------|
   1 + + + 2 + + + 3 + + + 4 + + +  

[Verse 2]
G|---------------------------------|---------------------------------|
D|---------------------------------|---------------------------------|
A|10----------------------h12\-----|-7-----------------------5/------| (x3)
E|---------------------------------|---------------------------------|
   1 + + + 2 + + + 3 + + + 4 + + +   1 + + + 2 + + + 3 + + + 4 + + +

G|---------------------------------|---------------------------------|
D|---------------------------------|---------------------------------|
A|10----------------------h12\-----|-7-----------------------5\------|
E|---------------------------------|---------------------------------|
   1 + + + 2 + + + 3 + + + 4 + + +   1 + + + 2 + + + 3 + + + 4 + + +

G|---------------------------------|---------------------------------|
D|---------------------------------|---------------------------------|
A|-3-----------------------2-------|-0-----------------------5\------|
E|---------------------------------|---------------------------------|
   1 + + + 2 + + + 3 + + + 4 + + +   1 + + + 2 + + + 3 + + + 4 + + +

G|---------------------------------|---------------------------------|
D|---------------------------------|---------------------------------|
A|10----------------------h12\-----|-7-----------------------5-------|
E|---------------------------------|---------------------------------|
   1 + + + 2 + + + 3 + + + 4 + + +   1 + + + 2 + + + 3 + + + 4 + + +

[Chorus 1]
G|---------------------------------|---------------------------------|
D|---------------------8---7-------|---------------------8---7-------|
A|-------------10--------------10--|-------------10--------------10--| (x4)
E|-8---8---8-----8---8-------------|-8---8---8-----8---8-------------|
   1 + + + 2 + + + 3 + + + 4 + + +   1 + + + 2 + + + 3 + + + 4 + + +

G|---------------------------------|
D|---------------------------------|
A|---------11\-------------13\-----|
E|-9--------------/11--------------|
   1 + + + 2 + + + 3 + + + 4 + + +  

G|---------------------------------|---------------------------------|
D|---------------------8---7-------|---------------------8---7-------|
A|-------------10--------------10--|-------------10--------------10--| (x2)
E|-8---8---8-----8---8-------------|-8---8---8-----8---8-------------|
   1 + + + 2 + + + 3 + + + 4 + + +   1 + + + 2 + + + 3 + + + 4 + + +

G|---------------------------------|
D|---------------------13----------|
A|---------11--------------13------|
E|-9-----------9--/11----------11\-|
   1 + + + 2 + + + 3 + + + 4 + + +  

G|---------------------------------|---------------------------------|
D|---------------------8---7-------|---------------------8---7-------|
A|-------------10--------------10--|-------------10--------------10--| (x2)
E|-8---8---8-----8---8-------------|-8---8---8-----8---8-------------|
   1 + + + 2 + + + 3 + + + 4 + + +   1 + + + 2 + + + 3 + + + 4 + + +

G|---------------------------------|
D|---------------------------------|
A|---------11\-------------13\-----|
E|-9--------------/11--------------|
   1 + + + 2 + + + 3 + + + 4 + + +  

G|---------------------------------|---------------------------------|
D|---------------------8---7-------|---------------------8---7-------|
A|-------------10--------------10--|-------------10--------------10--| (x2)
E|-8---8---8-----8---8-------------|-8---8---8-----8---8-------------|
   1 + + + 2 + + + 3 + + + 4 + + +   1 + + + 2 + + + 3 + + + 4 + + +

G|---------------------------------|
D|---------------------------------|
A|---------11\-------------13\-----|
E|-9--------------/11--------------|
   1 + + + 2 + + + 3 + + + 4 + + +  


G|---------------------------------|---------------------------------|
D|---------------------8---7-------|---------------------8---7-------|
A|-------------10--------------10--|-------------10--------------10--| (x2) (Fade)
E|-8---8---8-----8---8-------------|-8---8---8-----8---8-------------|
   1 + + + 2 + + + 3 + + + 4 + + +   1 + + + 2 + + + 3 + + + 4 + + +


************************************

| h  Hammer-on
| /  Slide up
| \  Slide down

************************************

            
            
Suggest correction
Creating personal tab
Creating personal tab
You can edit any tab online and save it as your Personal.

You can edit, replace or remove any tab part or add personal notes – all changes will be seen only by you.

Personal tabs can be accessed anytime from any device, even offline.
Learn more »
Give kudos to tab author, rate the tab!
1 2 3 4 5
comments
print report bad tab
guest
You may want to rate the tab now too:
select rating
Wanna post a correction for this tab? Suggest correction