Oops, an error
Loading. Please wait.

Dj Bass Tab

112 views 3 this week
no commentswrite comment
1 2 3 4 5
3 more votes to show rating
add to favorites
launch autoscroll
font size
0
reset
guitar tuner
Autoscroll
slow
fast
+/-
esc
set tempo
stop
Help us to improve Ultimate-Guitar.com Take our survey!
×
Author
Difficulty
intermediate
About this tab version
I step over the little details, but here is the main idea. Was this info helpful? Yes No
Artist : David Bowie
Album : Lodger
Track : D.J.



[Main Riff]
G|----------------|----------------|----7-----7-----|--7-------------|
D|-----7-----7----|-----7----7---5-|----------------|------4---5---6-|
A|----------------|----------------|5-5---5-5-----3\|5---------------| x4
E|5-5---5-5-----3\|5-5---x-5---3---|----------------|----2---3---4---|


[Chorus]
G|----------------|----------------|----------------|----------------|
D|----7-----------|----------------|----3-----3-----|----3-----------|
A|--------------5-|7-5-------------|----------------|----------------| x2
E|5-5---5-5-5-8---|----7-0-----3-0-|1-1---1-1-----x-|1-1---1-3---4---|


[Chorus End]
G|----------------|----------------|----------------|----------------|
D|----7-----------|----------------|----3-----------|----------------|
A|-------------\5-|7-5-------------|----------------|----------------| x1
E|5-5---5-5-5-----|----7-0-----3-0-|1-1---1-1-3-3-1-|1r--------------|


[Main Riff]
G|----------------|----------------|----7-----7-----|--7-------------|
D|-----7-----7----|-----7----7---5-|----------------|------4---5---6-|
A|----------------|----------------|5-5---5-5-----3\|5---------------| x4
E|5-5---5-5-----3\|5-5---x-5---3---|----------------|----2---3---4---|

sometimes the main riff alternates with this
G|----------------|--------------5-|----7-----7-----|--7-------------|
D|-----7-----7----|--7---5---4-----|----------------|------4---5---6-|
A|----------------|------------3---|5-5---5-5-----3\|5---------------|
E|5-5---5-5-----3\|5---3---2-------|----------------|----2---3---4---|


[Chorus]
G|----------------|----------------|----------------|----------------|
D|----------------|----------------|----3-----3-----|---3------------|
A|--------------5-|7-5-------------|----------------|----------------| x2
E|5---------5-8---|----7-0-----3-0-|1-1---1-1-----x-|1-1---1-3---4---|


[Chorus End]
G|----------------|----------------|----------------|----------------|
D|----7-----------|----------------|----3-----------|----------------|
A|-------------\5-|7-5-------------|----------------|----------------| x1
E|5-5---5-5-5-----|----7-0-----3-0-|1-1---1-1-3-3-1-|1r--------------|


[Main Riff]
G|----------------|----------------|----7-----7-----|--7-------------|
D|-----7-----7----|-----7----7---5-|----------------|------4---5---6-|
A|----------------|----------------|5-5---5-5-----3\|5---------------| x4
E|5-5---5-5-----3\|5-5---x-5---3---|----------------|----2---3---4---|


[Chorus]
G|----------------|----------------|----------------|----------------|
D|----7-----------|----------------|----3-----3-----|--3-3-3-5---6---|
A|--------------5-|7-5-------------|----------------|----------------| x2
E|5-5---5-5-5-8---|----7-0-----3-0-|1-1---1-1-----x-|1---------------|


[Chorus End]
G|----------------|----------------|----------------|----------------|
D|----7-----------|----------------|----3-----------|----------------|
A|-------------\5-|7-5-------------|----------------|----------------| x1
E|5-5---5-5-5-----|----7-0-----3-0-|1-1---1-1-3-3-1-|1r--------------|


[Interlude] : No bass


[Outro]
G|----------------|
D|----------------|
A|----------------|
E|----------0-3-4-|

G|----------------|----------------|----------------|----7-----------|
D|----7-----7-----|----------------|----7------7----|----------------|
A|----------------|-------5--------|----------------|5-5---5---3\5-7-| until the end
E|5-5---5-5-------|----------0-3-4-|5-5---5-5-------|----------------|(and don't forget to improvise)

[Fade Out]


************************************

| x   Dead note
| r   Release
| \   Slide 

************************************

Suggest correction
Give kudos to tab author, rate the tab!
1 2 3 4 5
comments
print report bad tab
guest
You may want to rate the tab now too:
select rating
Wanna post a correction for this tab? Suggest correction