Oops, an error
Loading. Please wait.

Fashion bass

version 2
version 2

Whole song

46 views 1 this week
no commentswrite comment
1 2 3 4 5
2 more votes to show rating
add to favorites
×
Save as Personal and add changes to this tab that will be seen only by you. Learn more ›
×
You can save this tab as Personal to edit and correct it or add notes. All changes will be seen only by you. Learn more »
launch autoscroll
font size
0
reset
guitar tuner
edit
Autoscroll
slow
fast
+/-
esc
set tempo
stop
Bowie´s been a part of me almost all my life. His death encouraged me to write down these bass tabs
which I'll upload from time to time.
Tabbed by Leo Chiurco

[Intro]
G|---------------------------------|---------------------------------|
D|---------------------------------|-5---3---------------------------|
A|---------------------------------|---------------------------------| (x2)
E|-3-------3-------1---------------|---------------------------------|
   1 + + + 2 + + + 3 + + + 4 + + +   1 + + + 2 + + + 3 + + + 4 + + +

G|---------------------------------|---------------------------------|
D|-------------------------------x-|-5---3---------------------------|
A|---------------------------------|---------------------------------|
E|-3-------3-------1---------------|---------------------------------|
   1 + + + 2 + + + 3 + + + 4 + + +   1 + + + 2 + + + 3 + + + 4 + + +

G|---------------------------------|-----------------------------5---|
D|---------------------------------|-5---3---------------2---2-------|
A|---------------------------------|-------------------3---3---------|
E|-3-------3-------1---------------|---------------------------------|
   1 + + + 2 + + + 3 + + + 4 + + +   1 + + + 2 + + + 3 + + + 4 + + +

[Verse 1]
G|---------------------------------|---------------------------------|
D|-------------------------------x-|-5---3---------------------------|
A|---------------------------------|---------------------------------| (x2)
E|-3-------3-------1---------------|---------------------------------|
   1 + + + 2 + + + 3 + + + 4 + + +   1 + + + 2 + + + 3 + + + 4 + + +

G|---------------------------------|---------------------------------|
D|---------------------------------|-5---3---------------------------|
A|---------------------------------|---------------------------------|
E|-3-------3-------1---------------|---------------------------------|
   1 + + + 2 + + + 3 + + + 4 + + +   1 + + + 2 + + + 3 + + + 4 + + +

G|---------------------------------|-----------------------------5---|
D|-------------------------------x-|-5---3---------------2---2-------|
A|---------------------------------|-------------------3---3---------|
E|-3-------3-------1---------------|---------------------------------|
   1 + + + 2 + + + 3 + + + 4 + + +   1 + + + 2 + + + 3 + + + 4 + + +

G|---------------------------------|---------------------------------|
D|-------------------------------x-|-5---3---------------------------|
A|---------------------------------|---------------------------------|
E|-3-------3-------1---------------|---------------------------------|
   1 + + + 2 + + + 3 + + + 4 + + +   1 + + + 2 + + + 3 + + + 4 + + +

G|---------------------------------|---------------------------------|
D|---------------------------------|-5---3---------------------------|
A|---------------------------------|---------------------------------| (x3)
E|-3-------3-------1---------------|---------------------------------|
   1 + + + 2 + + + 3 + + + 4 + + +   1 + + + 2 + + + 3 + + + 4 + + +

[Pre-chorus 1]
G|---------------------------------|---------------------------------|
D|---------------------------------|---------------------6-------8---|
A|---------------------------------|---------------------------------|
E|-6-----------------------------x-|-6---4---------x-4-------6-------|
   1 + + + 2 + + + 3 + + + 4 + + +   1 + + + 2 + + + 3 + + + 4 + + +

G|---------------------------------|---------------------------------|
D|---------------------------------|-------------------------6-------|
A|---------------------------------|---------------------------------|
E|-6---4---------------------------|-6---4---------------4-----------|
   1 + + + 2 + + + 3 + + + 4 + + +   1 + + + 2 + + + 3 + + + 4 + + +

G|---------------------------------|---------------------------------|
D|---------------------------------|---------------------6-------8---|
A|---------------------------------|---------------------------------|
E|-6---4-------------------------x-|-6---4---------x-4-------6-------|
   1 + + + 2 + + + 3 + + + 4 + + +   1 + + + 2 + + + 3 + + + 4 + + +

G|---------------------------------|---------------------------------|
D|---------------------------------|---------------------6-------8---|
A|---------------------------------|---------------------------------|
E|-6---4-------------------------x-|-6---4---------x-4-------6-------|
   1 + + + 2 + + + 3 + + + 4 + + +   1 + + + 2 + + + 3 + + + 4 + + +

[Solo 1]
G|---------------------------------|---------------------------------|
D|---------------------------------|-5---3---------------------------|
A|---------------------------------|---------------------------------|
E|-3-------3-------1---------------|---------------------------------|
   1 + + + 2 + + + 3 + + + 4 + + +   1 + + + 2 + + + 3 + + + 4 + + +

G|---------------------------------|---------------------------------|
D|-------------------------------x-|-5---3---------------------------|
A|---------------------------------|---------------------------------|
E|-3-------3-------1---------------|---------------------------------|
   1 + + + 2 + + + 3 + + + 4 + + +   1 + + + 2 + + + 3 + + + 4 + + +

G|---------------------------------|---------------------------------|
D|---------------------------------|-5---3---------------------------|
A|---------------------------------|---------------------------------|
E|-3-------3-------1---------------|---------------------------------|
   1 + + + 2 + + + 3 + + + 4 + + +   1 + + + 2 + + + 3 + + + 4 + + +

G|---------------------------------|---------------------------------|
D|---------------------------------|-5---3---------------------------|
A|---------------------------------|-----------------------0-3---4---|
E|-3-------3-------1---------------|---------------------------------|
   1 + + + 2 + + + 3 + + + 4 + + +   1 + + + 2 + + + 3 + + + 4 + + +

[Chorus 1]
G|---------------------------------|---------------------------------|
D|---------------------------------|---------------------------------|
A|-5---------------------------3h5-|-3---------------------0-3---4---|
E|---------------------------------|---------------------------------|
   1 + + + 2 + + + 3 + + + 4 + + +   1 + + + 2 + + + 3 + + + 4 + + +

G|---------------------------------|---------------------------------|
D|---------------------------------|---------------------------------|
A|-5-------------------------------|-----------------------------0---|
E|-------------------------3---2---|-1-------------------------------|
   1 + + + 2 + + + 3 + + + 4 + + +   1 + + + 2 + + + 3 + + + 4 + + +

G|---------------------------------|---------------------------------|
D|---------------------------------|-------------------------3-------|
A|-3---------------------------3---|---------------2-3---5-------3---|
E|-----------------------3-5-------|-1-------------------------------|
   1 + + + 2 + + + 3 + + + 4 + + +   1 + + + 2 + + + 3 + + + 4 + + +

[Verse 2]
G|---------------------------------|---------------------------------|
D|-5-------5-------3---------------|---------------------------------|
A|---------------------------------|---------------------------------| (x2)
E|-------------------------------x-|-3---1---------------------------|
   1 + + + 2 + + + 3 + + + 4 + + +   1 + + + 2 + + + 3 + + + 4 + + +

G|---------------------------------|---------------------------------|
D|---------------------------------|---------------------------------|
A|---------------------------------|---------------------------------|
E|-3-------3-------1-------------x-|-3---1---------------------------|
   1 + + + 2 + + + 3 + + + 4 + + +   1 + + + 2 + + + 3 + + + 4 + + +

G|---------------------------------|-----------------------------5---|
D|-5-------5-------3---------------|---------------------2---2-------|
A|---------------------------------|-------------------3---3---------|
E|-------------------------------x-|-3---1---------------------------|
   1 + + + 2 + + + 3 + + + 4 + + +   1 + + + 2 + + + 3 + + + 4 + + +

G|---------------------------------|---------------------------------|
D|---------------------------------|-5---3---------------------------|
A|---------------------------------|---------------------------------|
E|-3-------3-------1---------------|---------------------------------|
   1 + + + 2 + + + 3 + + + 4 + + +   1 + + + 2 + + + 3 + + + 4 + + +

G|---------------------------------|---------------------------------|
D|-------------------------------x-|-5---3---------------------------|
A|---------------------------------|---------------------------------|
E|-3-------3-------1---------------|---------------------------------|
   1 + + + 2 + + + 3 + + + 4 + + +   1 + + + 2 + + + 3 + + + 4 + + +

G|---------------------------------|---------------------------------|
D|---------------------------------|-5---3---------------------------|
A|---------------------------------|---------------------------------| (x2)
E|-3-------3-------1---------------|---------------------------------|
   1 + + + 2 + + + 3 + + + 4 + + +   1 + + + 2 + + + 3 + + + 4 + + +

[Pre-chorus 2]
G|---------------------------------|---------------------------------|
D|---------------------------------|---------------------6-------8---|
A|---------------------------------|---------------------------------|
E|-6---4-----------------x-4---5---|-6---4---------x-4-------6-------|
   1 + + + 2 + + + 3 + + + 4 + + +   1 + + + 2 + + + 3 + + + 4 + + +

G|---------------------------------|---------------------------------|
D|---------------------------------|---------------------6-------8---|
A|---------------------------------|---------------------------------| (x3)
E|-6---4---------------------------|-6---4---------x-4-------6-------|
   1 + + + 2 + + + 3 + + + 4 + + +   1 + + + 2 + + + 3 + + + 4 + + +

[Solo 2]
G|---------------------------------|---------------------------------|
D|---------------------------------|-5---3---------------------------|
A|---------------------------------|---------------------------------|
E|-3-------3-------1---------------|-----------------------0-1---2---|
   1 + + + 2 + + + 3 + + + 4 + + +   1 + + + 2 + + + 3 + + + 4 + + +

G|---------------------------------|---------------------------------|
D|---------------------------------|-5---3---------------------------|
A|---------------------------------|---------------------------------| (x2)
E|-3-------3-------1---------------|---------------------------------|
   1 + + + 2 + + + 3 + + + 4 + + +   1 + + + 2 + + + 3 + + + 4 + + +

G|---------------------------------|-------------------------5-------|
D|---------------------------------|-5---3-------2---2---------------|
A|---------------------------------|-----------3---3-----3-----------|
E|-3-------3-------1---------------|---------------------------------|
   1 + + + 2 + + + 3 + + + 4 + + +   1 + + + 2 + + + 3 + + + 4 + + +

[Chorus 2]
G|---------------------------------|---------------------------------|
D|---------------------------------|---------------------------------|
A|-5-------------------------------|-3-------------------------3-4---|
E|---------------------------------|---------------------------------|
   1 + + + 2 + + + 3 + + + 4 + + +   1 + + + 2 + + + 3 + + + 4 + + +

G|---------------------------------|---------------------------------|
D|---------------------------------|---------------------------------|
A|-5-------------------------------|---------------------------------|
E|-------------------------3---2---|-1-------------------------------|
   1 + + + 2 + + + 3 + + + 4 + + +   1 + + + 2 + + + 3 + + + 4 + + +

G|-------------------------2---5---|---------------------5---9-------|
D|---------------2-2---5-----------|-3-------------x-7-----------7---|
A|-3-------------------------------|---------------------------------|
E|---------------------------------|---------------------------------|
   1 + + + 2 + + + 3 + + + 4 + + +   1 + + + 2 + + + 3 + + + 4 + + +

[Coda]
G|---------------------------------|---------------------------------|
D|-5-------5-------3---------------|---------------------------------|
A|---------------------------------|---------------------------------| (x3)
E|---------------------------------|-3---1---------------------------|
   1 + + + 2 + + + 3 + + + 4 + + +   1 + + + 2 + + + 3 + + + 4 + + +

G|---------------------------------|---------------------9-----------|
D|-5-------5-------3---------------|------------------10--10---------|
A|---------------------------------|-------------------------8-------|
E|---------------------------------|-3---1---------------------------|
   1 + + + 2 + + + 3 + + + 4 + + +   1 + + + 2 + + + 3 + + + 4 + + +

G|---------------------------------|---------------------------------|
D|-------------------------------x-|-5---3---------------------------|
A|---------------------------------|---------------------------------|
E|-3-------3-------1---------------|-----------------------x-1---2---|
   1 + + + 2 + + + 3 + + + 4 + + +   1 + + + 2 + + + 3 + + + 4 + + +

G|---------------------------------|---------------------------------|
D|-------------------------------x-|-5---3---------------------------|
A|---------------------------------|---------------------------------|
E|-3-------3-------1---------------|---------------------------------|
   1 + + + 2 + + + 3 + + + 4 + + +   1 + + + 2 + + + 3 + + + 4 + + +

G|---------------------------------|---------------------------------|
D|---------------------------------|-5---3---------------------------|
A|---------------------------------|---------------------------------|
E|-3-------3-------1---------------|---------------------------------|
   1 + + + 2 + + + 3 + + + 4 + + +   1 + + + 2 + + + 3 + + + 4 + + +

G|---------------------------------|-------------------------9-------|
D|---------------------------------|-5---3--------------10----10-----|
A|---------------------------------|-----------------7---------------|
E|-3-------3-------1---------------|---------------8-----------------|
   1 + + + 2 + + + 3 + + + 4 + + +   1 + + + 2 + + + 3 + + + 4 + + +

G|---------------------------------|---------------------------------|
D|---------------------------------|-5---3---------------------------|
A|-----------------------------5---|---------------------------------|
E|-3-------3-------1---------------|---------------------------------|
   1 + + + 2 + + + 3 + + + 4 + + +   1 + + + 2 + + + 3 + + + 4 + + +

G|---------------------------------|---------------------------------|
D|---------------------------------|-5---3---------------------------|
A|-------------------------3---5---|---------------------------------|
E|-3-------3-------1---------------|---------------------------------|
   1 + + + 2 + + + 3 + + + 4 + + +   1 + + + 2 + + + 3 + + + 4 + + +

G|---------------------------------|---------------------------------|
D|-------------------------------x-|-5---3---------------------------|
A|---------------------------------|---------------------------------|
E|-3-------3-------1---------------|-----------------------------1---|
   1 + + + 2 + + + 3 + + + 4 + + +   1 + + + 2 + + + 3 + + + 4 + + +


G|---------------------------------|---------------------------------|
D|---------------------------------|-5---3-------------------3---4---|
A|---------------------------------|-----------------3---3-----------|
E|-3-------3-------1---------------|---------------------------------|
   1 + + + 2 + + + 3 + + + 4 + + +   1 + + + 2 + + + 3 + + + 4 + + +

G|---------------------------------|---------------------------------|
D|-5-------5-------3---------------|---------------------------------|
A|---------------------------------|---------------------------------|
E|-------------------------------x-|-3---1-------------------------x-|
   1 + + + 2 + + + 3 + + + 4 + + +   1 + + + 2 + + + 3 + + + 4 + + +

G|---------------------------------|---------------------------------|
D|-------------------------------x-|-5---3---------------------------|
A|---------------------------------|---------------------------------|
E|-3-------3-------1---------------|---------------------------------|
   1 + + + 2 + + + 3 + + + 4 + + +   1 + + + 2 + + + 3 + + + 4 + + +

G|---------------------------------|---------------------------------|
D|---------------------------------|-5---3---------------------------|
A|---------------------------------|---------------------------------|
E|-3-------3-------1---------------|---------------------------------|
   1 + + + 2 + + + 3 + + + 4 + + +   1 + + + 2 + + + 3 + + + 4 + + +

G|---------------------------------|-----------------9----------------|
D|---------------------------------|-5---3------------10-10-----------|
A|---------------------------------|--------------------------8-------|
E|-3-------3-------1---------------|----------------------------------|
   1 + + + 2 + + + 3 + + + 4 + + +   1 + + + 2 + + + 3 +  + + 4 + + +

G|---------------------------------|---------------------------------|
D|---------------------------------|-5---3---------------------------|
A|-------------------------3---5---|---------------------------------|
E|-3-------3-------1---------------|---------------------------------|
   1 + + + 2 + + + 3 + + + 4 + + +   1 + + + 2 + + + 3 + + + 4 + + +

G|---------------------------------|---------------------------------|
D|---------------------------------|-5---3---------------------------|
A|---------------------------3h5---|---------------------------------|
E|-3-------3-------1---------------|---------------------------------|
   1 + + + 2 + + + 3 + + + 4 + + +   1 + + + 2 + + + 3 + + + 4 + + +

G|---------------------------------|---------------------------------|
D|---------------------------------|-5---3---------------------------|
A|---------------------------3-3---|---------------------------------|
E|-3-------3-------1---------------|---------------------------------|
   1 + + + 2 + + + 3 + + + 4 + + +   1 + + + 2 + + + 3 + + + 4 + + +

G|---------------------------------|---------------------------------|
D|---------------------------------|-5---3---------------------------|
A|---------------------------------|---------------------------------| (Fade)
E|-3-------3-------1---------------|---------------------------------|
   1 + + + 2 + + + 3 + + + 4 + + +   1 + + + 2 + + + 3 + + + 4 + + +


************************************

| h  Hammer-on
| x  Dead note
| /  Slide up

************************************

            
            
Suggest correction
Creating personal tab
Creating personal tab
You can edit any tab online and save it as your Personal.

You can edit, replace or remove any tab part or add personal notes – all changes will be seen only by you.

Personal tabs can be accessed anytime from any device, even offline.
Learn more »
Give kudos to tab author, rate the tab!
1 2 3 4 5
comments
print report bad tab
guest
You may want to rate the tab now too:
select rating
Wanna post a correction for this tab? Suggest correction