Oops, an error
Loading. Please wait.

Golden Years bass

version 1
version 1

Whole song

Interactive

4,622 views 12 this week
no commentswrite comment
1 2 3 4 5
1 last vote to show rating
add to favorites
×
Save as Personal and add changes to this tab that will be seen only by you. Learn more ›
×
You can save this tab as Personal to edit and correct it or add notes. All changes will be seen only by you. Learn more »
launch autoscroll
font size
0
reset
guitar tuner
backing track
0:00
0:00
edit
Autoscroll
slow
fast
+/-
esc
set tempo
stop
-------------------------------------------------------------------------------
                             GOLDEN YEARS - David Bowie
                        From the album - Station to Station (1976)
-------------------------------------------------------------------------------

Tabbed by: Diabolusinmusic (Talkbass handle)
E-mail: Don't e-mail me, just update the tab and credit me where due

The timing and structure are not 100% accurate, this is an outline, you need
to listen to where the parts go and proper timing.

I didn't include any of the fills, that will be great ear training.  The key
is F# Minor and he pretty much just jams on the pentatonics.  The slap part
at the end is easy enough to figure out from there, especially when you
youtube the master bass track.

Tuning: Standard

Intro / Main riff                        0:46                         Cont'd
G|-------------------------------------|-------------------------------------|
D|------------4--4-2-2-------4--x-4--:-|------------------------------0-4----|
A|--2-4-----------------2-4----------:-|-2-4--2-4--5--2--0-2-0--5--2---------|
E|-------0-2---------------------------|-------------------------------------|

                   1:16                                               Cont'd
G|---------------|-------------------------2-4-------------------------------|
D|-2-2-------4-4-|-----2--------------------------2--5------2-5-2--7---------|
A|------2-4------|-2-4---4-5--2--0-2-0--5-------5------5-3-----------7-4-----|
E|---------------|-----------------------------------------------------------|


G|--------------------|------------------------------------------------------------|
D|--------------2-2-2-|------------------------------------------------------------|
A|-----2-2---4--------|------------------------------------------------------------|
E|-2-4----------------|------------------------------------------------------------|



| /  slide up
| \  slide down
| h  hammer-on
| p  pull-off
| ~  vibrato
| +  harmonic
| x  Mute note
===============================================================================
Suggest correction
Creating personal tab
Creating personal tab
You can edit any tab online and save it as your Personal.

You can edit, replace or remove any tab part or add personal notes – all changes will be seen only by you.

Personal tabs can be accessed anytime from any device, even offline.
Learn more »
Give kudos to tab author, rate the tab!
1 2 3 4 5
comments
print report bad tab
guest
You may want to rate the tab now too:
select rating
Wanna post a correction for this tab? Suggest correction