Oops, an error
Loading. Please wait.
We have Chord Pro version of Heroes.
It's the closest thing you can get to the original song and it has interactive parts. Check out the tab »
×
27,941 views 30 this week
1 commentread comment
1 2 3 4 5
x 7
add to favorites
×
Save as Personal and add changes to this tab that will be seen only by you. Learn more ›
×
You can save this tab as Personal to edit and correct it or add notes. All changes will be seen only by you. Learn more »
launch autoscroll
font size
0
reset
how to read this tab
guitar tuner
backing track
0:00
0:00
edit
Autoscroll
slow
fast
+/-
esc
set tempo
stop
Heroes – by David Bowie
Transcribed by Duck Dogers

D  G (2x)

D                       G
I, I wish you could swim 
        D                               G
Like the dolphins, like dolphins can swim 
       C                                D
Though nothing, nothing will keep us together 
       Am         Em            D
We can beat them, for ever and ever 
                C     G               D
Oh we can be Heroes, just for one day 

D  G (2x)

D               G
I, I will be king 
        D               G
And you, you will be queen 
       C                        D
Though nothing will drive them away 
       Am        Em             D
We can be Heroes, just for one day 
         C     G                D
We can be us, just for one day 

D               G
I, I can remember (I remember) 
D                 G
Standing, by the wall (by the wall) 
        D          G
And the guns shot above our heads (over our heads) 
        D                               G
And we kissed, as though nothing could fall (nothing could fall) 
       C                   D
And the shame was on the other side 
           Am        Em            D
Oh we can beat them, for ever and ever 
                   C     G              D
Then we could be Heroes, just for one day 

D                G
        We can be Heroes 
D                G
        We can be Heroes 
D                G
        We can be Heroes 
D                G
        We can be Heroes 
(Fade Out)


Lead guitar (intro through verse)
e|--------------------------------------------------------------------------|
B|10--12--10--8-/-10--------------------------------------------------------|
G|--------------------------------------------------------------------------|
D|--------------------------------------------------------------------------|
A|--------------------------------------------------------------------------|
E|--------------------------------------------------------------------------|

Lead guitar (runs from first C of verse)
e|--------------------------------------------------------------------------|
B|--8-\7-5-5-7----8-\7-5-5-7----8-\7-5-5-7----------------------------------|
G|-------------7-------------7--------------2-------------------------------|
D|--------------------------------------------------------------------------|
A|--------------------------------------------------------------------------|
E|--------------------------------------------------------------------------|

e|--------------------------------------------------------------------------|
B|--8-\7-5-5-7----8-\7-5-5-7----8-\7-5-5-7----------------------------------|
G|-------------5-------------4--------------2-------------------------------|
D|--------------------------------------------------------------------------|
A|--------------------------------------------------------------------------|
E|--------------------------------------------------------------------------|
Suggest correction
Creating personal tab
Creating personal tab
You can edit any tab online and save it as your Personal.

You can edit, replace or remove any tab part or add personal notes – all changes will be seen only by you.

Personal tabs can be accessed anytime from any device, even offline.
Learn more »
comments
print report bad tab
1 comment total.
0 reply
Rain Man 20 Apr 03, 2010 05:10 PM

Excellent chords!!!!

guest
Wanna post a correction for this tab? Suggest correction