Oops, an error
Loading. Please wait.
We have an official Life On Mars tab made by UG professional guitarists. Check out the tab »
×
3,166 views 33 this week
no commentswrite comment
1 2 3 4 5
x 4
add to favorites
×
Save as Personal and add changes to this tab that will be seen only by you. Learn more ›
×
You can save this tab as Personal to edit and correct it or add notes. All changes will be seen only by you. Learn more »
launch autoscroll
font size
0
reset
guitar tuner
backing track
0:00
0:00
edit
Autoscroll
slow
fast
+/-
esc
set tempo
stop
Author
Difficulty
Tabbed by: 6METAL6BASSIST6
E-mail: petergriffinav@gmail.com

Tuning: EADG

G|----------------------------------------------------------------|
D|3-------------------------------2-------------------------------|
A|----------------------------------------------------------------|
E|----------------------------------------------------------------|

G|----------------------------------------------------------------|
D|1-------------------------------0-----------------------4---4---|
A|----------------------------------------------------------------|
E|----------------------------------------------------------------|

G|----------------------------------------------------------------|
D|5-------------------------------3-------------------------------|
A|----------------------------------------------------------------|
E|----------------------------------------------------------------|

G|--------------------------------5-------------------------------|
D|------------------------------5-------------------------5-------|
A|3---------------------------3-----------------------------------|
E|----------------------------------------------------------------|

0:17

G|----------------------------------------------------------------|
D|3-------------------------------2-------------------------------|
A|----------------------------------------------------------------|
E|----------------------------------------------------------------|

G|----------------------------------------------------------------|
D|1-------------------------------0-----------------------4-------|
A|----------------------------------------------------------------|
E|----------------------------------------------------------------|

G|----------------------------------------------------------------|
D|5-------------------------------3-------------------------------|
A|----------------------------------------------------------------|
E|----------------------------------------------------------------|

G|--------------------------------5-------------------------------|
D|------------------------------5-------------------------5-------|
A|3---------------------------3-----------------------------------|
E|----------------------------------------------------------------|

0:32

G|----------------------------------------------------------------|
D|1-------------------------------2-------------------------------|
A|----------------------------------------------------------------|
E|----------------------------------------------------------------|

G|------------------------------------------------------------5---|
D|3-------------------------------4-------------------------------|
A|----------------------------------------------------------------|
E|----------------------------------------------------------------|

G|6-----------------------6---5-----------------------------------|
D|--------------------------------7-------------------------------|
A|----------------------------------------------------------------|
E|----------------------------------------------------------------|

G|----------------------------------------------------------------|
D|8-------------------------------9-------------------------------|
A|----------------------------------------------------------------|
E|----------------------------------------------------------------|

0:48

G|------------------------------------------------8-------8---5---|.
D|8---------------------------------------------------------------|.
A|--------------------------------6-------------------------------|.
E|----------------------------------------------------------------|.
                                                                   .
G|------------------------------------------------7-------5-------|.
D|5-------------------------------4-------------------------------|.
A|----------------------------------------------------------------|.
E|----------------------------------------------------------------|.
                                                                   , x2
G|----------------------------------------------------------------|.
D|3-------------------------------3---------------3---2---1---0---|.
A|----------------------------------------------------------------|.
E|----------------------------------------------------------------|.
                                                                   .
G|----------------------------------------------------------------|.
D|----------------------------------------------------------------|.
A|3-----------------------3---5---6-------------------------------|.
E|----------------------------------------------------------------|.

1:18

G|----------------------------------------------------------------|
D|5-------------------------------4-------------------------------|
A|----------------------------------------------------------------|
E|----------------------------------------------------------------|

G|----------------------------------------------------------------|
D|3-------------------------------2-------------------------------|
A|----------------------------------------------------------------|
E|----------------------------------------------------------------|

G|----------------------------------------------------------------|
D|3-------------------------------4-------------------------------|
A|----------------------------------------------------------------|
E|----------------------------------------------------------------|

G|----------------------------------------------------------------|
D|5---------------------------------------------------------------|
A|--------------------------------5-------------------------------|
E|----------------------------------------------------------------|

G|--------------------------------------------------------------------|
D|7-------------------------------8-----------------------------------|
A|--------------------------------------------------------------------|
E|--------------------------------------------------------------------|

G|----------------------------------------|
D|8---------------------------------------|
A|----------------------------------------|
E|----------------------------------------|

1:40

G|----------------------------------------------------------------|
D|3-------------------------------2-------------------------------|
A|----------------------------------------------------------------|
E|----------------------------------------------------------------|

G|----------------------------------------------------------------|
D|1-------------------------------0-----------------------4---4---|
A|----------------------------------------------------------------|
E|----------------------------------------------------------------|

G|----------------------------------------------------------------|
D|5-------------------------------3-------------------------------|
A|----------------------------------------------------------------|
E|----------------------------------------------------------------|

G|--------------------------------5-------------------------------|
D|------------------------------5-------------------------5-------|
A|3---------------------------3-----------------------------------|
E|----------------------------------------------------------------|

1:55

G|----------------------------------------------------------------|
D|3-------------------------------2-------------------------------|
A|----------------------------------------------------------------|
E|----------------------------------------------------------------|

G|----------------------------------------------------------------|
D|1-------------------------------0-----------------------4-------|
A|----------------------------------------------------------------|
E|----------------------------------------------------------------|

G|----------------------------------------------------------------|
D|5-------------------------------3-------------------------------|
A|----------------------------------------------------------------|
E|----------------------------------------------------------------|

G|--------------------------------5-------------------------------|
D|--------------------------------------------------------5-------|
A|3---------------------------3-----------------------------------|
E|----------------------------------------------------------------|

2:11

G|----------------------------------------------------------------|
D|1-------------------------------2-------------------------------|
A|----------------------------------------------------------------|
E|----------------------------------------------------------------|

G|------------------------------------------------------------5---|
D|3-------------------------------4-----------------------4-------|
A|----------------------------------------------------------------|
E|----------------------------------------------------------------|

G|6-----------------------6---5-----------------------------------|
D|--------------------------------7-------------------------------|
A|----------------------------------------------------------------|
E|----------------------------------------------------------------|

G|----------------------------------------------------------------|
D|8-------------------------------9-------------------------------|
A|----------------------------------------------------------------|
E|----------------------------------------------------------------|

2:28

G|------------------------------------------------8-------8-------|
D|8---------------------------------------------------------------|
A|--------------------------------6-------------------------------|
E|----------------------------------------------------------------|

G|------------------------------------------------7---------------|
D|5-------------------------------4-----------------------4-------|
A|----------------------------------------------------------------|
E|----------------------------------------------------------------|

G|----------------------------------------------------------------|
D|3-------------------------------3---------------3---2---1---0---|
A|----------------------------------------------------------------|
E|----------------------------------------------------------------|

G|----------------------------------------------------------------|
D|----------------------------------------------------------------|
A|3-----------------------3---5---6-------------------------------|
E|----------------------------------------------------------------|

2:44

G|------------------------------------------------8-------8-------|
D|8---------------------------------------------------------------|
A|--------------------------------6-------------------------------|
E|----------------------------------------------------------------|

G|------------------------------------------------7---------------|
D|5-------------------------------4-----------------------10\-----|
A|----------------------------------------------------------------|
E|----------------------------------------------------------------|

G|----------------------------------------------------------------|
D|3-------------------------------3---------------3---2---1---0---|
A|----------------------------------------------------------------|
E|----------------------------------------------------------------|

G|----------------------------------------------------------------|
D|----------------------------------------------------------------|
A|3-----------------------3-------6-------------------------------|
E|----------------------------------------------------------------|

2:58

G|----------------------------------------------------------------|
D|5-------------------------------4-------------------------------|
A|----------------------------------------------------------------|
E|----------------------------------------------------------------|

G|----------------------------------------------------------------|
D|3-------------------------------2-------------------------------|
A|----------------------------------------------------------------|
E|----------------------------------------------------------------|

G|----------------------------------------------------------------|
D|3-------------------------------4-------------------------------|
A|----------------------------------------------------------------|
E|----------------------------------------------------------------|

G|----------------------------------------------------------------|
D|5-------------------------------3-------------------------------|
A|----------------------------------------------------------------|
E|----------------------------------------------------------------|

G|----------------------------------------------------------------|
D|3-------------------------------3-------------------------------|
A|----------------------------------------------------------------|
E|----------------------------------------------------------------|

G|----------------------------------------|
D|1---------------------------------------|
A|----------------------------------------|
E|----------------------------------------|

G|-----------------------------------------------------------------|
D|------------------------4-----6-----8-----10------8--------------|
A|1-----3-----4-----6----------------------------------------------|
E|-----------------------------------------------------------------|
Suggest correction
Creating personal tab
Creating personal tab
You can edit any tab online and save it as your Personal.

You can edit, replace or remove any tab part or add personal notes – all changes will be seen only by you.

Personal tabs can be accessed anytime from any device, even offline.
Learn more »
comments
print report bad tab
guest
You may want to rate the tab now too:
select rating
Wanna post a correction for this tab? Suggest correction