Oops, an error
Loading. Please wait.

Move On bass

40 views 6 this week
no commentswrite comment
1 2 3 4 5
2 more votes to show rating
add to favorites
×
Save as Personal and add changes to this tab that will be seen only by you. Learn more ›
×
You can save this tab as Personal to edit and correct it or add notes. All changes will be seen only by you. Learn more »
launch autoscroll
font size
0
reset
guitar tuner
edit
Autoscroll
slow
fast
+/-
esc
set tempo
stop
David Bowie
Song: Move On
Album: Lodger

David Bowie´s been a part of me almost all my life. His death encouraged me to write down these bass tabs
which I'll upload from time to time.

Tabbed by Leo Chiurco
Tunning: Drop D

[Verse 1] "Sometimes I feel ...
G|---------------------------------|---------------------------------|
D|---------------------------------|---------------------------------|
A|-4-------------------------------|---------------------------------| X2
D|---------------------------------|-----------------4-------.-------|
   1 + + + 2 + + + 3 + + + 4 + + +   1 + + + 2 + + + 3 + + + 4 + + +

G|---------------------------------|---------------------------------|
D|---------------------------------|---------------------------------|
A|-4-------------------------------|---------------------------------| X2
D|---------------------------------|-----------------6-------.-------|
   1 + + + 2 + + + 3 + + + 4 + + +   1 + + + 2 + + + 3 + + + 4 + + +

G|---------------------------------|---------------------------------|
D|---------------------------------|---------------------------------|
A|-4-------------------------------|---------------------------------|
D|---------------------------------|---------------------------------|
   1 + + + 2 + + + 3 + + + 4 + + +   1 + + + 2 + + + 3 + + + 4 + + +

G|---------------------------------|---------------------------------|
D|---------------------------------|---------------------------------|
A|-4-------------------------------|---------------------------------| X2
D|---------------------------------|-----------------4-------.-------|
   1 + + + 2 + + + 3 + + + 4 + + +   1 + + + 2 + + + 3 + + + 4 + + +

G|---------------------------------|---------------------------------|
D|---------------------------------|---------------------------------|
A|-4-------------------------------|---------------------------------| X2
D|---------------------------------|-----------------6-------.-------|
   1 + + + 2 + + + 3 + + + 4 + + +   1 + + + 2 + + + 3 + + + 4 + + +

G|---------------------------------|---------------------------------|
D|---------------------------------|---------------------------------|
A|-4-------.-----------------------|-2-------.-----------------------|
D|-----------------6-------.-------|-----------------4-------.-------|
   1 + + + 2 + + + 3 + + + 4 + + +   1 + + + 2 + + + 3 + + + 4 + + +

[Pre-chorus 1] "Somewhere, someone's ..."
G|---------------------------------|---------------------------------|
D|---------------------------------|---------------------------------|
A|-2-------------------------------|---------------------------------|
D|-------------------------1.------|-2-----------------------1---2---|
   1 + + + 2 + + + 3 + + + 4 + + +   1 + + + 2 + + + 3 + + + 4 + + +

G|---------------------------------|---------------------------------|
D|---------------------------------|---------------------------------|
A|---------------------------------|---------------------------------|
D|-4-----------------------5.------|-6-----------------------6---8---|
   1 + + + 2 + + + 3 + + + 4 + + +   1 + + + 2 + + + 3 + + + 4 + + +

G|---------------------------------|---------------------------------|
D|---------------------------------|---------------------------------|
A|-4---------------4.--------------|---------------------------------|
D|-------------------------6.------|-8-----------------------6---8---|
   1 + + + 2 + + + 3 + + + 4 + + +   1 + + + 2 + + + 3 + + + 4 + + +

G|---------------------------------|---------------------------------|
D|---------------------------------|---------------------------------|
A|-4-------------------------------|-4-------------------------------|
D|-------------------------6.------|-------------------------4.------|
   1 + + + 2 + + + 3 + + + 4 + + +   1 + + + 2 + + + 3 + + + 4 + + +

G|---------------------------------|---------------------------------|
D|---------------------------------|---------------------------------|
A|-2---------------2---------------|---------------------------------|
D|---------------------------------|-2-----------------------1---2---|
   1 + + + 2 + + + 3 + + + 4 + + +   1 + + + 2 + + + 3 + + + 4 + + +

G|---------------------------------|---------------------------------|
D|---------------------------------|---------------------------------|
A|---------------------------------|---------------------------------|
D|-4---------------4.------5.------|-6-----------------------6---8---|
   1 + + + 2 + + + 3 + + + 4 + + +   1 + + + 2 + + + 3 + + + 4 + + +

G|---------------------------------|---------------------------------|
D|-------------------------6.------|-8---------------6---------------|
A|-4--------------/8---------------|-------------------------6-------|
D|---------------------------------|---------------------------------|
   1 + + + 2 + + + 3 + + + 4 + + +   1 + + + 2 + + + 3 + + + 4 + + +

G|---------------------------------|-----------------|
D|---------------------------------|-----------------|
A|-4-------4-------4-------4-------|-4.--------------|
D|---------------------------------|-----------------|
   1 + + + 2 + + + 3 + + + 4 + + +   1 + + + 2 + + + 

G|---------------------------------|---------------------------------|
D|---------------------------------|---------------------------------|
A|-4-------.-----------------------|-2-------.-----------------------|
D|-----------------6-------.-------|-----------------4-------.-------|
   1 + + + 2 + + + 3 + + + 4 + + +   1 + + + 2 + + + 3 + + + 4 + + +

[Chorus 1] "Africa  ..."
G|---------------------------------|---------------------------------|
D|---------------------------------|---------------------------------|
A|-2-----------------------2---2---|-2---------------4.------4-h-6---|
D|---------------------------------|---------------------------------|
   1 + + + 2 + + + 3 + + + 4 + + +   1 + + + 2 + + + 3 + + + 4 + + +

G|---------------------------------|---------------------------------|
D|---------------------------------|---------------------------------|
A|---------------------------------|---------------------------------|
D|-1-----------------------X---1---|-1-----------------------4---3---|
   1 + + + 2 + + + 3 + + + 4 + + +   1 + + + 2 + + + 3 + + + 4 + + +

G|---------------------------------|---------------------------------|
D|---------------------------------|---------2-------2---2-----------|
A|---------------------------------|-----2-------------------2---1---|
D|-2---------------------------2---|-2-------------------------------|
   1 + + + 2 + + + 3 + + + 4 + + +   1 + + + 2 + + + 3 + + + 4 + + +

G|---------------------------------|---------------------------------|
D|---------------------------------|---------------------------------|
A|-0-------.-----------------------|---------------------------------|
D|-----------------2-------.-------|-4-------.-------6---------------|
   1 + + + 2 + + + 3 + + + 4 + + +   1 + + + 2 + + + 3 + + + 4 + + +

G|---------------------------------|-----------------|
D|---------------------------------|-----------------|
A|---------------------------------|-----------------|
D|-------------6---6---------------|-6.------4---6---|
   1 + + + 2 + + + 3 + + + 4 + + +   1 + + + 2 + + + 

G|---------------------------------|---------------------------------|
D|---------------------------------|---------------------------------|
A|-2-----------------------2-------|-------------------------2-------|
D|---------------------------------|-1-------2-------4---------------|
   1 + + + 2 + + + 3 + + + 4 + + +   1 + + + 2 + + + 3 + + + 4 + + +

G|---------------------------------|---------------------------------|
D|---------------------------------|---------------------------------|
A|-4---------------------------4---|-4---------------2.--------------|
D|---------------------------------|-------------------------6-------|
   1 + + + 2 + + + 3 + + + 4 + + +   1 + + + 2 + + + 3 + + + 4 + + +

G|---------------------------------|---------------------------------|
D|---------------------------------|-----------------2---------------|
A|---------------------------------|---------2---------------2---1---|
D|-2-----------------------2-------|-6-------------------------------|
   1 + + + 2 + + + 3 + + + 4 + + +   1 + + + 2 + + + 3 + + + 4 + + +

G|---------------------------------|---------------------------------|
D|---------------------------------|---------------------------------|
A|-0-------.-----------------------|---------------------------------|
D|-----------------2-------.-------|-4-------.-------6---------------|
   1 + + + 2 + + + 3 + + + 4 + + +   1 + + + 2 + + + 3 + + + 4 + + +

G|---------------------------------|-----------------|
D|---------------------------------|-----------------|
A|---------------------------------|-----------------|
D|-----------------6---------------|-6.------4---6---|
   1 + + + 2 + + + 3 + + + 4 + + +   1 + + + 2 + + + 

[Verse 2] "Sometimes I feel ...
G|---------------------------------|---------------------------------|
D|---------------------------------|---------------------------------|
A|-4-------------------------------|---------------------------------| X2
D|---------------------------------|-----------------4-------.-------|
   1 + + + 2 + + + 3 + + + 4 + + +   1 + + + 2 + + + 3 + + + 4 + + +

G|---------------------------------|---------------------------------|
D|---------------------------------|---------------------------------|
A|-4-------------------------------|---------------------------------| X2
D|---------------------------------|-----------------6-------.-------|
   1 + + + 2 + + + 3 + + + 4 + + +   1 + + + 2 + + + 3 + + + 4 + + +

G|---------------------------------|---------------------------------|
D|---------------------------------|---------------------------------|
A|-4-------.-----------------------|-2-------.-----------------------|
D|-----------------6-------.-------|-----------------4-------.-------|
   1 + + + 2 + + + 3 + + + 4 + + +   1 + + + 2 + + + 3 + + + 4 + + +


[Pre-chorus 2]
G|---------------------------------|---------------------------------|
D|---------------------------------|---------------------------------|
A|-2-------------------------------|---------------------------------|
D|-------------------------1.------|-2-----------------------2.------|
   1 + + + 2 + + + 3 + + + 4 + + +   1 + + + 2 + + + 3 + + + 4 + + +

G|---------------------------------|---------------------------------|
D|---------------------------------|---------------------------------|
A|---------------------------------|---------------------------------|
D|-4---------------4.------4---5---|-6-----------------------6---8---|
   1 + + + 2 + + + 3 + + + 4 + + +   1 + + + 2 + + + 3 + + + 4 + + +

G|---------------------------------|---------------------------------|
D|---------------------------------|---------------------------------|
A|-4---------------4.--------------|---------------------------------|
D|-------------------------6.------|-8---------------6-------8-------|
   1 + + + 2 + + + 3 + + + 4 + + +   1 + + + 2 + + + 3 + + + 4 + + +

G|---------------------------------|---------------------------------|
D|---------------------------------|---------------------------------|
A|-4-------------------------------|-4---------------------------4---|
D|-------------------------6.------|-------------------------6-------|
   1 + + + 2 + + + 3 + + + 4 + + +   1 + + + 2 + + + 3 + + + 4 + + +

G|---------------------------------|---------------------------------|
D|---------------------------------|---------------------------------|
A|-2---------------2---------------|---------------------------------|
D|---------------------------------|-2-------------------------------|
   1 + + + 2 + + + 3 + + + 4 + + +   1 + + + 2 + + + 3 + + + 4 + + +

G|---------------------------------|---------------------------------|
D|---------------------------------|---------------------------------|
A|---------------------------------|---------------------------------|
D|-4---------------4.------5.------|-6-----------------------6---8---|
   1 + + + 2 + + + 3 + + + 4 + + +   1 + + + 2 + + + 3 + + + 4 + + +

G|---------------------------------|---------------------------------|
D|---------------------------------|---------------------------------|
A|-4---------------4.------6-------|---------------------------------|
D|-----------------------------6---|-8---------------6.------8-------|
   1 + + + 2 + + + 3 + + + 4 + + +   1 + + + 2 + + + 3 + + + 4 + + +

G|---------------------------------|---------------------------------|
D|---------------------------------|---------------------------------|
A|-4-------------------------------|-4---------------6-------4.------|
D|-------------------------6.------|---------------------------------|
   1 + + + 2 + + + 3 + + + 4 + + +   1 + + + 2 + + + 3 + + + 4 + + +

[Pre-chorus 3] "Somewhere, someone's ..."
G|---------------------------------|---------------------------------|
D|---------------------------------|---------------------------------|
A|-2-------------------------------|---------------------------------|
D|---------------------------------|-2-----------------------2.------|
   1 + + + 2 + + + 3 + + + 4 + + +   1 + + + 2 + + + 3 + + + 4 + + +

G|---------------------------------|---------------------------------|
D|---------------------------------|---------------------------------|
A|---------------------------------|---------------------------------|
D|-4---------------4.------5.------|-6---------------6.------8.------|
   1 + + + 2 + + + 3 + + + 4 + + +   1 + + + 2 + + + 3 + + + 4 + + +

G|---------------------------------|---------------------------------|
D|-------------------------6.------|-8-------6.----------------------|
A|-4--------------/8---------------|-----------------8-------6-------|
D|---------------------------------|---------------------------------|
   1 + + + 2 + + + 3 + + + 4 + + +   1 + + + 2 + + + 3 + + + 4 + + +

G|---------------------------------|---------------------------------|
D|---------------------------------|---------------------------------|
A|-4-------------------------------|-4-------------------------------|
D|-------------------------6.------|-------------------------4.------|
   1 + + + 2 + + + 3 + + + 4 + + +   1 + + + 2 + + + 3 + + + 4 + + +

G|---------------------------------|---------------------------------|
D|---------------------------------|---------------------------------|
A|-2---------------2---------------|---------------------------------|
D|-------------------------1.------|-2-----------------------3.------|
   1 + + + 2 + + + 3 + + + 4 + + +   1 + + + 2 + + + 3 + + + 4 + + +

G|---------------------------------|---------------------------------|
D|---------------------------------|---------------------------------|
A|---------------------------------|---------------------------------|
D|-4---------------4.------5.------|-6-----------------------6---8---|
   1 + + + 2 + + + 3 + + + 4 + + +   1 + + + 2 + + + 3 + + + 4 + + +

G|---------------------------------|---------------------------------|
D|---------------------------------|---------------------------------|
A|-4---------------4.--------------|---------------------------------|
D|-------------------------6.------|-8---------------6.------8-------|
   1 + + + 2 + + + 3 + + + 4 + + +   1 + + + 2 + + + 3 + + + 4 + + +

G|---------------------------------|---------------------------------|
D|---------------------------------|---------------------------------|
A|-4-------------------------------|-4---------------4.--------------|
D|-------------------------6.------|-------------------------4.------|
   1 + + + 2 + + + 3 + + + 4 + + +   1 + + + 2 + + + 3 + + + 4 + + +

[Pre-chorus 4]
G|---------------------------------|---------------------------------|
D|---------------------------------|---------------------------------|
A|-2---------------2.--------------|---------------------------------|
D|-------------------------1.------|-2---------------1.------2.------|
   1 + + + 2 + + + 3 + + + 4 + + +   1 + + + 2 + + + 3 + + + 4 + + +

G|---------------------------------|---------------------------------|
D|---------------------------------|---------------------------------|
A|---------------------------------|---------------------------------|
D|-4---------------4.------5.------|-6-----------------------6---8---|
   1 + + + 2 + + + 3 + + + 4 + + +   1 + + + 2 + + + 3 + + + 4 + + +

G|---------------------------------|---------------------------------|
D|---------------------------------|---------------------------------|
A|-4---------------4.--------------|---------------------------------|
D|-------------------------6.------|-8---------------6.------8.------|
   1 + + + 2 + + + 3 + + + 4 + + +   1 + + + 2 + + + 3 + + + 4 + + +

G|---------------------------------|-----------------|
D|---------------------------------|-----------------|
A|-4-------------------------------|-----------------|
D|---------------------------------|-----------------|
   1 + + + 2 + + + 3 + + + 4 + + +   1 + + + 2 + + + 

G|---------------------------------|---------------------------------|
D|---------------------------------|---------------------------------|
A|-4-------.-----------------------|-2-------.-----------------------|
D|-----------------6-------.-------|-----------------4-------.-------|
   1 + + + 2 + + + 3 + + + 4 + + +   1 + + + 2 + + + 3 + + + 4 + + +

[Outro]
G|---------------------------------|---------------------------------|
D|-------------------------1---1---|---------1---------------1-------|
A|---------------------------------|---------------------------------|
D|-1-------------------------------|-1---------------1---------------|
   1 + + + 2 + + + 3 + + + 4 + + +   1 + + + 2 + + + 3 + + + 4 + + +

G|---------------------------------|---------------------------------|
D|-------------------------1---1---|---------1---------------1-------|
A|---------------------------------|---------------------------------| x2
D|-1-------1-------1---------------|-1---------------1---------------|
   1 + + + 2 + + + 3 + + + 4 + + +   1 + + + 2 + + + 3 + + + 4 + + +

G|---------------------------------|---------------------------------|
D|-------------------------1---1---|-----1---1---------------1-------|
A|---------------------------------|-----------------------------1---|
D|-1-------1-------1---------------|-1---------------1---------------|
   1 + + + 2 + + + 3 + + + 4 + + +   1 + + + 2 + + + 3 + + + 4 + + +

G|---------------------------------|---------------------------------|
D|-------------------------1---1---|---------1---1-1h2-------1-------|
A|---------------------------------|---------------------------------|
D|-1-------1-------1---------------|-1-------------------------------|
   1 + + + 2 + + + 3 + + + 4 + + +   1 + + + 2 + + + 3 + + + 4 + + +

G|---------------------------------|---------------------------------|
D|-------------------------1---1---|---------1---------------1-------|
A|---------------------------------|---------------------------------|
D|-1-------1-------1---------------|-1---------------1---------------|
   1 + + + 2 + + + 3 + + + 4 + + +   1 + + + 2 + + + 3 + + + 4 + + +

G|---------------------------------|---------------------------------|
D|-------------------------1---1---|---------1---1-1h2-------1-------| 
A|---------------------------------|---------------------------------|
D|-1-------1-------1---------------|-1-------------------------------| (Fade)
   1 + + + 2 + + + 3 + + + 4 + + +   1 + + + 2 + + + 3 + + + 4 + + +

************************************

| .  End note
| h  Hammer-on
| X  Dead note
| /  Slide up

************************************
Suggest correction
Creating personal tab
Creating personal tab
You can edit any tab online and save it as your Personal.

You can edit, replace or remove any tab part or add personal notes – all changes will be seen only by you.

Personal tabs can be accessed anytime from any device, even offline.
Learn more »
Give kudos to tab author, rate the tab!
1 2 3 4 5
comments
print report bad tab
guest
You may want to rate the tab now too:
select rating
Wanna post a correction for this tab? Suggest correction