Oops, an error
Loading. Please wait.
We have Chord Pro version of Oh You Pretty Things.
It's the closest thing you can get to the original song and it has interactive parts. Check out the tab »
×

Oh You Pretty Things tab

version 2
version 2

Whole song

  • Simpler chord structure for novice players.

Interactive

28 views 1 this week
no commentswrite comment
1 2 3 4 5
3 more votes to show rating
add to favorites
×
Save as Personal and add changes to this tab that will be seen only by you. Learn more ›
×
You can save this tab as Personal to edit and correct it or add notes. All changes will be seen only by you. Learn more »
launch autoscroll
font size
0
reset
how to read this tab
guitar tuner
edit
Autoscroll
slow
fast
+/-
esc
set tempo
stop
About this tab version
Simpler chord structure for novice players. Was this info helpful? Yes No
[Intro]
                        Eb     Db
e|--------------------------------------------------------------------------------------|
B|-----1------3------1------------------------------------------------------------------|
G|-0h2----3h4----0h2----3-3-3--1-1------------------------------------------------------|
D|----------------------1-1-1--3-3------------------------------------------------------|
A|-----------------------------4-4------------------------------------------------------|
E|--------------------------------------------------------------------------------------|

                        Eb     Db   F#   Db   F#   Db   F#   Db   F#
e|--------------------------------------------------------------------------------------|
B|-----1------3------1------------------------------------------------------------------|
G|-0h2----3h4----0h2----3-3-3--1-1--3-3--1-1--3-3--1-1--3-3--1-1--3-3-------------------|
D|----------------------1-1-1--3-3--4-4--3-3--4-4--3-3--4-4--3-3--4-4-------------------|
A|-----------------------------4-4--4-4--4-4--4-4--4-4--4-4--4-4--4-4-------------------|
E|----------------------------------2-2-------2-2-------2-2-------2-2-------------------|

[Verse 1]
    F#             Db         Ebsus                           F#
e|--------------------------------------------------------------------------------------|
B|--------------------------------------------------------------------------------------|
G|--3--------------1------------3-----------------------------3-------------------------|
D|--4--------------3------------6-----------------------------4-------------------------|
A|--4--------------4------------6-----------------------------4-------------------------|
E|--2---------------------------4-----------------------------2-------------------------|
       Wake up you sleepy head.    Put on some clothes, shake up your bed

    F#                    Db          G#m                             Eb
e|--------------------------------------------------------------------------------------|
B|--------------------------------------------------------------------------------------|
G|--3----------------------1-----------4------------------------------3-----------------|
D|--4----------------------3-----------6------------------------------5-----------------|
A|--4----------------------4-----------6------------------------------6-----------------|
E|--2----------------------------------4------------------------------------------------|
    Put another log on the fire for me.  I've made some breakfast and coffee.

    F#                Db               Ddim        Bdim        F#          F#sus    Db
e|--------------------------------------1------------1----------------------------------|
B|--------------------------------------3------------3----------------------------------|
G|--3------------------1----------------1------------4---------3-------------4-------1--|
D|--4------------------3---------------------------------------4-------------4-------3--|
A|--4------------------4---------------------------------------4-------------4-------4--|
E|--2----------------------------------------------------------2-------------2----------|
    Look out my window what do I see? A crack in the sky and a hand reaching down to me.

    Db                        Db7                                   F#
e|--------------------------------------------------------------------------------------|
B|--------------------------------------------------------------------------------------|
G|--1--------------------------4------------------------------------3-------------------|
D|--3--------------------------3------------------------------------4-------------------|
A|--4--------------------------4------------------------------------4-------------------|
E|------------------------------------------------------------------2-------------------|
    All the nightmares came today   And it looks as though they're here to stay

[Bridge]
    F#   Db  G#m   Eb   Bb  Fsus F
e|--------------------------------------------------------------------------------------|
B|----------------------3-3--1----------------------------------------------------------|
G|--3-3--1----4-4--3----3-3--3---2------------------------------------------------------|
D|--4-4--3----6-6--5----3-3--3---3------------------------------------------------------|
A|--4-4--4----6-6--6----1-1--1---3------------------------------------------------------|
E|--2-2-------4-4----------------1------------------------------------------------------|

[Verse 2]
    F#             Db         Ebsus                F#
e|--------------------------------------------------------------------------------------|
B|--------------------------------------------------------------------------------------|
G|--3--------------1------------3------------------3------------------------------------|
D|--4--------------3------------6------------------4------------------------------------|
A|--4--------------4------------6------------------4------------------------------------|
E|--2---------------------------4------------------2------------------------------------|
       What are we coming to?   No room for me, no fun for you

    F#                 Db                     G#m                      Eb
e|--------------------------------------------------------------------------------------|
B|--------------------------------------------------------------------------------------|
G|--3------------------1-----------------------4-----------------------3----------------|
D|--4------------------3-----------------------6-----------------------5----------------|
A|--4------------------4-----------------------6-----------------------6----------------|
E|--2------------------------------------------4----------------------------------------|
       I think about a world to come where the books were found by the golden ones

    F#               Db               Ddim    Bdim       F#       F#sus         Db
e|--------------------------------------1-------1---------------------------------------|
B|--------------------------------------3-------3---------------------------------------|
G|--3----------------1------------------1-------4--------3----------4------------1------|
D|--4----------------3-----------------------------------4----------4------------3------|
A|--4----------------4-----------------------------------4----------4------------4------|
E|--2----------------------------------------------------2----------2-------------------|
    Written in pain, written in awe by a puzzled man who questioned what we were here for.

    Db                       Db7                                  F#
e|--------------------------------------------------------------------------------------|
B|--------------------------------------------------------------------------------------|
G|--1-------------------------4-----------------------------------3---------------------|
D|--3-------------------------3-----------------------------------4---------------------|
A|--4-------------------------4-----------------------------------4---------------------|
E|----------------------------------------------------------------2---------------------|
    All the strangers came today.  And it looks as though they're here to stay.

[Chorus]
    F#     Bbm           Ebm          F#          B7                              F#
e|--------------------------------------------------------------------------------------|
B|--2-------6-------------7-----------11------------------------------------------2-----|
G|--3-------6-------------8-----------11----------8-------------------------------3-----|
D|--4-------8-------------8-----------11----------7-------------------------------4-----|  (2x)
A|--4-------8-------------6------------9----------9-------------------------------4-----|
E|--2-------6-------------------------------------7-------------------------------2-----|
    Oh! you pretty things   Don't you know you're driving your Mamas and papas insane

    F#     G#                Db                      B          F#
e|----------------------------4----------------------2----------------------------------|
B|--2------4------------------6----------------------4----------2-----------------------|
G|--3------5------------------6----------------------4----------3-----------------------|
D|--4------6------------------6----------------------4----------4-----------------------|
A|--4------6------------------4----------------------2----------4-----------------------|
E|--2------4----------------------------------------------------2-----------------------|
    Let me make it plain. You gotta make way for the homo superior

[Verse 3]
    F#               Db      Ebsus                F#
e|--------------------------------------------------------------------------------------|
B|--------------------------------------------------------------------------------------|
G|--3-----------------1--------3--------------------3-----------------------------------|
D|--4-----------------3--------6--------------------4-----------------------------------|
A|--4-----------------4--------6--------------------4-----------------------------------|
E|--2--------------------------4--------------------2-----------------------------------|
     Look out at your children.  See their faces in golden rays.

    F#                         Db          G#m                        Eb
e|--2-----------------------------------------------------------------------------------|
B|--2-----------------------------------------------------------------------------------|
G|--3--------------------------1------------4--------------------------3----------------|
D|--4--------------------------3------------6--------------------------5----------------|
A|--4--------------------------4------------6--------------------------6----------------|
E|------------------------------------------4-------------------------------------------|
     Don't kid yourself they belong to you.   They're the start of the coming race.

       F#                     Db                 Ddim  Bdim     F#    F#sus         Db
e|-------------------------------------------------1----1-------------------------------|
B|-------------------------------------------------3----3-------------------------------|
G|-----3-----------------------1-------------------1----4-------3-------4-----------1---|
D|-----4-----------------------3--------------------------------4-------4-----------3---|
A|-----4-----------------------4--------------------------------4-------4-----------4---|
E|-----2--------------------------------------------------------2-------2---------------|
   The earth is a bitch. We've finished our news.  Homo sapiens have outgrown their use

    Db                       Db7                                  F#
e|--------------------------------------------------------------------------------------|
B|--------------------------------------------------------------------------------------|
G|--1-------------------------4-----------------------------------3---------------------|
D|--3-------------------------3-----------------------------------4---------------------|
A|--4-------------------------4-----------------------------------4---------------------|
E|----------------------------------------------------------------2---------------------|
    All the strangers came today.  And it looks as though they're here to stay.

[Chorus]
    F#     Bbm           Ebm          F#         B7                               F#
e|--------------------------------------------------------------------------------------|
B|--2-------6-------------7-----------11------------------------------------------2-----|
G|--3-------6-------------8-----------11----------8-------------------------------3-----|
D|--4-------8-------------8-----------11----------7-------------------------------4-----|  (2x)
A|--4-------8-------------6------------9----------9-------------------------------4-----|
E|--2-------6-------------------------------------7-------------------------------2-----|
    Oh! you pretty things   Don't you know you're driving your Mamas and papas insane

    F#     G#                Db                      B          F#
e|----------------------------4----------------------2----------------------------------|
B|--2------4------------------6----------------------4----------2-----------------------|
G|--3------5------------------6----------------------4----------3-----------------------|
D|--4------6------------------6----------------------4----------4-----------------------|
A|--4------6------------------4----------------------2----------4-----------------------|
E|--2------4----------------------------------------------------2-----------------------|
    Let me make it plain. You gotta make way for the homo superior

[Outro]
                        Eb     Db
e|--------------------------------------------------------------------------------------|
B|-----1------3------1------------------------------------------------------------------|
G|-0h2----3h4----0h2----3-3-3--1-1------------------------------------------------------|
D|----------------------1-1-1--3-3------------------------------------------------------|
A|-----------------------------4-4------------------------------------------------------|
E|--------------------------------------------------------------------------------------|

                        Eb     Db   F#   Db   F#  Db    F#   Db   F#
e|--------------------------------------------------------------------------------------|
B|-----1------3------1------------------------------------------------------------------|
G|-0h2----3h4----0h2----3-3-3--1-1--3-3--1-1--3-3--1-1--3-3--1-1--3-3-------------------|
D|----------------------1-1-1--3-3--4-4--3-3--4-4--3-3--4-4--3-3--4-4-------------------|
A|-----------------------------4-4--4-4--4-4--4-4--4-4--4-4--4-4--4-4-------------------|
E|----------------------------------2-2-------2-2-------2-2-------2-2-------------------|

    C   F        D    G                          F   C
e|--------------------------------------------------------------------------------------|
B|--5-5--1-1-----7-7--3-3------------1------1--------1----------------------------------|
G|--5-5--2-2-----7-7--4-4--------0h2----0h2---0--2--------------------------------------|
D|--5-5--3-3-----7-7--5-5------------------------3---2----------------------------------|
A|--3-3--3-3-----5-5--5-5------------------------3---3----------------------------------|
E|-------1-1----------3-3------------------------1--------------------------------------|


************************************

| h   Hammer-on

************************************
Suggest correction
Creating personal tab
Creating personal tab
You can edit any tab online and save it as your Personal.

You can edit, replace or remove any tab part or add personal notes – all changes will be seen only by you.

Personal tabs can be accessed anytime from any device, even offline.
Learn more »
Give kudos to tab author, rate the tab!
1 2 3 4 5
comments
print report bad tab
guest
You may want to rate the tab now too:
select rating
Wanna post a correction for this tab? Suggest correction