Oops, an error
Loading. Please wait.
We have an official Rebel Rebel tab made by UG professional guitarists. Check out the tab »
×
24,151 views 24 this week
1 commentread comment
1 2 3 4 5
x 8
add to favorites
×
Save as Personal and add changes to this tab that will be seen only by you. Learn more ›
×
You can save this tab as Personal to edit and correct it or add notes. All changes will be seen only by you. Learn more »
launch autoscroll
font size
0
reset
guitar tuner
backing track
0:00
0:00
edit
Autoscroll
slow
fast
+/-
esc
set tempo
stop
Author
-------------------------------------------------------------------------------
                         Rebel Rebel- David Bowe
-------------------------------------------------------------------------------

Tabbed By : Jeff Worsham        
e-mail:Worsham_j@juno.com 

Tuning:EADG

[Intro]
G|-------9---7--------------------------------------------------------------|
D|---------------9---7---6--------------------------------------------------|
A|------------------------------7-7-----------------------------------------|
E|--------------------------------------------------------------------------|
[Verse]
G|--------------------------------------------------------------------------|
D|--------------------------------------------------------------------------|
A|-------5-5-4-5--7-----------0-1-2-3--/--5-5-4-5-7-------------0-1-2-3-----|
E|-------------------0--2--3---------------------------0--2--3--------------|
  
[Chorus:] I just play whole notes! Sounds OK, but he is doing something
            more than that. If you know it please let me know!
G|--------------------------------------------------------------------------|
D|--------------------------------------------------------------------------|
A|------------5---------------7---------------------------------------------|
E|----5--------------7------------------------------------------------------|



************************************

| /  Slide up

************************************

            
            
Suggest correction
Creating personal tab
Creating personal tab
You can edit any tab online and save it as your Personal.

You can edit, replace or remove any tab part or add personal notes – all changes will be seen only by you.

Personal tabs can be accessed anytime from any device, even offline.
Learn more »
comments
print report bad tab
1 comment total.
0 reply
illinidan 21 Jul 21, 2009 08:35 PM

Sounds good. A few things I hear differently, but this helped me a lot.

The verse sounds to me like "0 2 3 4" on the A string in place of "0 1 2 3".

Intro is
G|--9-7------------
D|--------9-7------
A|------------10-9-
E|-----------------

guest
You may want to rate the tab now too:
select rating
Wanna post a correction for this tab? Suggest correction