Oops, an error
Loading. Please wait.

Rebel Rebel Tab

version 1
version 1
420,286 views 612 this week
17 commentsread comments
1 2 3 4 5
x 189
add to favorites
launch autoscroll
font size
0
reset
how to read this tab
guitar tuner
backing track
0:00
0:00
×
Best way to learn
"Rebel Rebel"
Autoscroll
slow
fast
+/-
esc
set tempo
stop
[Intro]

[Riff]

 D             E                   letring
e|----0------------|-------------------|
B|----5---3---2-0.-|0-----0-2p0--------|
G|-------(2)--2-1.-|1-----------1------|
D|--------------2.-|2-------------2-0--|
A|-----------------|hold---------------|
E|-----------------|-------------------|

D                           E 
  You've got your mother    in a whirl
D                           E 
  She's not sure if you're a boy or a girl
D                           E 
  Hey babe                your hairs alright
D                           E 
  Hey babe                let's go out tonight
D                           E 
  You like   me    and     I like it all
D                           E 
  We like dancing  and    we look divine
D                           E 
  You love bands   when they play it hard
D                           E 
  You want more   and    you  want it fast

A                           D                 Bm                     E
  They put you down    they  say I'm wrong       You tacky thing you put them on

D                           E 
   Rebel   Rebel       you've  torn you're dress
D                           E 
   Rebel   Rebel       you're face is a mess
D                           E 
   Rebel   Rebel       how could they know?
                           
D (Hold chord)                   E (hold chord open D note & back to riff)
   Hot tramp                I    love you so              



The Riff 
        D9            E
e|-----------0--------(0)------------------|
B|------(3)-----3--2---0-0-----2--0--------|
G|------(2)------------1-1-----------1-----|
D|-------0------------(2)---2-----------2--|
A|-----------------------------------------|
E|--(3)------------------------------------|

[Bridge]

A          D         Bm          E
They put...say I'm...you tacky...you put...


[End of chorus]

D          E
Hot tramp! I love...
********************

(n)    Ghost note
 p     Pull off

********************
Suggest correction
comments
print report bad tab
17 comments total. Showing first comments.
+16 reply
wunderdog 331 Sep 04, 2005 08:00 PM

Intro:

Q Q Q E E E E E E E E E E
|----0--(0)------|----------------------|
|--------3---2-0-|---0-----2p0-(0)-(0)--|
|------------2-1-|---1----------1-------|
|-0--------------|------------------2---|
|----------------|----------------------|
|----------------|-------0--------------|

0 reply
hartdaniel 105 Mar 12, 2006 03:47 AM

Great job

0 reply
buckykatt323 10 Nov 02, 2006 01:06 PM

hey man this is awesome

guest
You may want to rate the tab now too:
select rating
Wanna post a correction for this tab? Suggest correction