Oops, an error
Loading. Please wait.
We have an official Rebel Rebel tab made by UG professional guitarists. Check out the tab »
×
27,992 views 138 this week
1 commentread comment
1 2 3 4 5
x 15
add to favorites
×
Save as Personal and add changes to this tab that will be seen only by you. Learn more ›
×
You can save this tab as Personal to edit and correct it or add notes. All changes will be seen only by you. Learn more »
launch autoscroll
font size
0
reset
guitar tuner
backing track
0:00
0:00
edit
Autoscroll
slow
fast
+/-
esc
set tempo
stop
Author
Difficulty
intermediate
[Intro]

  Dsus4    E        Dsus4    E        Dsus4    E        Dsus4    E        
G|--------|--------|--------|--------|--------|--------|--------|-976----|
D|--------|--------|--------|--------|--------|--------|--------|----976-|
A|--------|--------|--------|--------|--------|--------|--------|-------7|
E|--------|--------|--------|--------|--------|--------|--------|--------|

  Dsus4    E        Dsus4    E        Dsus4    E        Dsus4    E        
G|--------|--------|--------|--------|--------|--------|--------|--------|
D|--------|--------|--------|--------|--------|--------|--------|--------|
A|5-5-545-|7----024|5-5-545-|7----024|5-5-545-|7----024|5-5-545-|7----024|
E|--------|-02-4---|--------|-02-4---|--------|-02-4---|--------|-02-4---|


[Verse]

  Dsus4            E                      Dsus4                        E            
    Got you mother in a whirl               She's not sure if you're a boy or a girl
  Dsus4           E                       Dsus4            E       
    Hey babe your hair's alright            Hey babe let's go out tonight
  Dsus4             E                     Dsus4                 E              
    You like me and I like it all           We like dancing now we look divine
  Dsus4                 E                 Dsus4                   E        
    You love bands when they play it hard   You want more and you want it fast 

  Dsus4    E        Dsus4    E        Dsus4    E        Dsus4    E        
G|--------|--------|--------|--------|--------|--------|--------|--------|
D|--------|--------|--------|--------|--------|--------|--------|--------|
A|5-5-545-|7----024|5-5-545-|7----024|5-5-545-|7----024|5-5-545-|7----024|
E|--------|-02-4---|--------|-02-4---|--------|-02-4---|--------|-02-4---|

  Dsus4    E        Dsus4    E        Dsus4    E        Dsus4    E        
G|--------|--------|--------|--------|--------|--------|--------|--------|
D|--------|--------|--------|--------|--------|--------|--------|--------|
A|5-5-545-|7----024|5-5-545-|7----024|5-5-545-|7----024|5-5-545-|7----024|
E|--------|-02-4---|--------|-02-4---|--------|-02-4---|--------|-02-4---|


[Bridge]

       A                  D                   Bm                  E
  They put you down  They say I'm wrong   You tacky thing    You put them on

  A        D        Bm       E
G|--------|--------|--------|--------|
D|--------|--------|--------|--------|
A|--------|5-5-5754|2-2-242-|------24|
E|5-5-5457|--------|-------2|0-0-24--|


[Chorus]

  Dsus4                  E                 Dsus4                E
    Rebel rebel   You've torn your dress     Rebel Rebel   Your face is a mess
  Dsus4                  E                 Dsus4                E
    Rebel rebel      How could they know     Hot tramp        I love you so

  Dsus4    E        Dsus4    E        Dsus4    E        Dsus4    E        
G|--------|--------|--------|--------|--------|--------|--------|--------|
D|--------|--------|--------|--------|--------|--------|--------|--------|
A|5-5-545-|7----024|5-5-545-|7----024|5-5-545-|7----024|5-------|7-------|
E|--------|-02-4---|--------|-02-4---|--------|-02-4---|--------|--------|


[Instrumental]

  Dsus4    E        Dsus4    E        Dsus4    E        Dsus4    E        
G|--------|--------|--------|-976----|--------|--------|--------|--------|
D|--------|--------|--------|----976-|--------|--------|--------|--------|
A|--------|--------|--------|-------7|5-5-545-|7----024|5-5-545-|7----024|
E|--------|--------|--------|--------|--------|-02-4---|--------|-02-4---|


[Verse]

  Dsus4            E                      Dsus4                  E            
    Got you mother in a whirl  'Cause she's not sure if you're a boy or a girl
  Dsus4                    E              Dsus4            E       
    Hey babe your hair's alright            Hey babe let's stay out tonight
  Dsus4             E                     Dsus4                 E              
    You like me and I like it all           We like dancing now we look divine
  Dsus4                 E                 Dsus4                   E        
    You love bands when they play it hard   You want more and you want it fast 

  Dsus4    E        Dsus4    E        Dsus4    E        Dsus4    E        
G|--------|--------|--------|--------|--------|--------|--------|--------|
D|--------|--------|--------|--------|--------|--------|--------|--------|
A|5-5-545-|7----024|5-5-545-|7----024|5-5-545-|7----024|5-5-545-|7----024|
E|--------|-02-4---|--------|-02-4---|--------|-02-4---|--------|-02-4---|

  Dsus4    E        Dsus4    E        Dsus4    E        Dsus4    E        
G|--------|--------|--------|--------|--------|--------|--------|--------|
D|--------|--------|--------|--------|--------|--------|--------|--------|
A|5-5-545-|7----024|5-5-545-|7----024|5-5-545-|7----024|5-5-545-|7----024|
E|--------|-02-4---|--------|-02-4---|--------|-02-4---|--------|-02-4---|


[Bridge]

       A                  D                   Bm                 E
  They put you down  They say I'm wrong   You tacky thing    You put them on

  A        D        Bm       E
G|--------|--------|--------|--------|
D|--------|--------|--------|--------|
A|--------|5-5-5754|2-2-242-|------24|
E|5-5-5457|--------|-------2|0-0-24--|


[Chorus]

  Dsus4                  E                 Dsus4                E
    Rebel rebel   You've torn your dress     Rebel Rebel   Your face is a mess
  Dsus4                  E                 Dsus4                E
    Rebel rebel      How could they know     Hot tramp        I love you so

  Dsus4    E        Dsus4    E        Dsus4    E        Dsus4    E        
G|--------|--------|--------|--------|--------|--------|--------|--------|
D|--------|--------|--------|--------|--------|--------|--------|--------|
A|5-5-545-|7----024|5-5-545-|7----024|5-5-545-|7----024|5-------|7-------|
E|--------|-02-4---|--------|-02-4---|--------|-02-4---|--------|--------|


[Instrumental]

  Dsus4    E        Dsus4    E        Dsus4    E        Dsus4    E        
G|--------|--------|--------|-976----|--------|--------|--------|--------|
D|--------|--------|--------|----976-|--------|--------|--------|--------|
A|--------|--------|--------|-------7|5-5-545-|7----024|5-5-545-|7----024|
E|--------|--------|--------|--------|--------|-02-4---|--------|-02-4---|


[Chorus]

  Dsus4                  E                 Dsus4                E
    Rebel rebel   You've torn your dress     Rebel Rebel   Your face is a mess
  Dsus4                  E                 Dsus4                E
    Rebel rebel      How could they know     Hot tramp        I love you so

  Dsus4    E        Dsus4    E        Dsus4    E        Dsus4    E        
G|--------|--------|--------|--------|--------|--------|--------|--------|
D|--------|--------|--------|--------|--------|--------|--------|--------|
A|5-5-545-|7----024|5-5-545-|7----024|5-5-545-|7----024|5-------|7-------|
E|--------|-02-4---|--------|-02-4---|--------|-02-4---|--------|--------|


[Coda]

  Dsus4       E      Dsus4      E

         Dsus4                  E             
  You've torn your dress   Your face is a mess
      Dsus4                  E
  You can't get enough that enough ain't the test
  Dsus4                   E
    Transmission and your live wire
                  Dsus4          E
  You got your    Few lies and a handful of blues
              Dsus4               E 
  You wanna    Be there when they count out the dudes
        Dsus4             E
  And I love your dress   
           Dsus4             E               
  You're a juvenile success   
               Dsus4            E
  Because your face is a mess

(Bass line repeat forever...)

  Dsus4    E        Dsus4    E        Dsus4    E        Dsus4    E        
G|--------|--------|--------|-976----|--------|--------|--------|--------|
D|--------|--------|--------|----976-|--------|--------|--------|--------|
A|5-5-545-|7----024|5-5-545-|7------7|5-5-545-|7----024|5-5-545-|7----024|
E|--------|-02-4---|--------|--------|--------|-02-4---|--------|-02-4---|

            
            
Suggest correction
Creating personal tab
Creating personal tab
You can edit any tab online and save it as your Personal.

You can edit, replace or remove any tab part or add personal notes – all changes will be seen only by you.

Personal tabs can be accessed anytime from any device, even offline.
Learn more »
comments
print report bad tab
1 comment total.
0 reply
zoltyd 10 Dec 01, 2013 11:34 PM

I'm gay :(

guest
You may want to rate the tab now too:
select rating
Wanna post a correction for this tab? Suggest correction