Oops, an error
Loading. Please wait.
We have Chord Pro version of Rebel Rebel.
It's the closest thing you can get to the original song and it has interactive parts. Check out the tab »
×
7,020 views 30 this week
no commentswrite comment
1 2 3 4 5
x 7
add to favorites
launch autoscroll
font size
0
reset
how to read this tab
guitar tuner
backing track
0:00
0:00
Autoscroll
slow
fast
+/-
esc
set tempo
stop
Rebel Rebel - David Bowie
Tabbed by: Lewis K.
Tuning: Standard

[Main Riff]
e|----0----------------------------------------------------------------------|
B|------3-2-------2p0--------------------------------------------------------|
G|----------1-1-------1------------------------------------------------------|
D|--0-------2-2---------2----------------------------------------------------|
A|----------2-2--------------------------------------------------------------|
E|--------------0------------------------------------------------------------|x16

[Bridge]
e|--0-0-0-0--2-2-2-2--2-2-2-------0-0-0-0------------------------------------|
B|--2-2-2-2--3-3-3-3--3-3-3-------0-0-0-0------------------------------------|
G|--2-2-2-2--2-2-2-2--4-4-4-------1-1-1-1------------------------------------|
D|--2-2-2-2--0-0-0-0--4-4-4-------2-2-2-2------------------------------------|
A|--0-0-0-0-----------2-2-2-------2-2-2-2------------------------------------|
E|--------------------2-2-2--3-2--0-0-0-0------------------------------------|

[Main Riff]
e|----0----------------------------------------------------------------------|
B|------3-2-------2p0--------------------------------------------------------|
G|----------1-1-------1------------------------------------------------------|
D|--0-------2-2---------2----------------------------------------------------|
A|----------2-2--------------------------------------------------------------|
E|--------------0------------------------------------------------------------|x3

[Bridge 2]
e|--2--0---------------------------------------------------------------------|
B|--3--0---------------------------------------------------------------------|
G|--2--1---------------------------------------------------------------------|
D|--0--2---------------------------------------------------------------------|
A|-----2---------------------------------------------------------------------|
E|-----0--3b4----------------------------------------------------------------|

[Main Riff]
e|----0----------------------------------------------------------------------|
B|------3-2-------2p0--------------------------------------------------------|
G|----------1-1-------1------------------------------------------------------|
D|--0-------2-2---------2----------------------------------------------------|
A|----------2-2--------------------------------------------------------------|
E|--------------0------------------------------------------------------------|x12

[Bridge]
e|--0-0-0-0--2-2-2-2--2-2-2-------0-0-0-0------------------------------------|
B|--2-2-2-2--3-3-3-3--3-3-3-------0-0-0-0------------------------------------|
G|--2-2-2-2--2-2-2-2--4-4-4-------1-1-1-1------------------------------------|
D|--2-2-2-2--0-0-0-0--4-4-4-------2-2-2-2------------------------------------|
A|--0-0-0-0-----------2-2-2-------2-2-2-2------------------------------------|
E|--------------------2-2-2--3-2--0-0-0-0------------------------------------|

[Main Riff]
e|----0----------------------------------------------------------------------|
B|------3-2-------2p0--------------------------------------------------------|
G|----------1-1-------1------------------------------------------------------|
D|--0-------2-2---------2----------------------------------------------------|
A|----------2-2--------------------------------------------------------------|
E|--------------0------------------------------------------------------------|x3

[Bridge 2]
e|--2--0---------------------------------------------------------------------|
B|--3--0---------------------------------------------------------------------|
G|--2--1---------------------------------------------------------------------|
D|--0--2---------------------------------------------------------------------|
A|-----2---------------------------------------------------------------------|
E|-----0--3b4----------------------------------------------------------------|

[Main Riff]
e|----0----------------------------------------------------------------------|
B|------3-2-------2p0--------------------------------------------------------|
G|----------1-1-------1------------------------------------------------------|
D|--0-------2-2---------2----------------------------------------------------|
A|----------2-2--------------------------------------------------------------|
E|--------------0------------------------------------------------------------|x7

[Bridge 2]
e|--2--0---------------------------------------------------------------------|
B|--3--0---------------------------------------------------------------------|
G|--2--1---------------------------------------------------------------------|
D|--0--2---------------------------------------------------------------------|
A|-----2---------------------------------------------------------------------|
E|-----0--3b4----------------------------------------------------------------|

[Main Riff]
e|----0----------------------------------------------------------------------|
B|------3-2-------2p0--------------------------------------------------------|
G|----------1-1-------1------------------------------------------------------|
D|--0-------2-2---------2----------------------------------------------------|
A|----------2-2--------------------------------------------------------------|
E|--------------0------------------------------------------------------------|x21

************************************

| p  Pull-off
| b  Bend

************************************
Suggest correction
comments
print report bad tab
guest
You may want to rate the tab now too:
select rating
Wanna post a correction for this tab? Suggest correction