Oops, an error
Loading. Please wait.

Song For Bob Dylan bass

43 views 1 this week
no commentswrite comment
1 2 3 4 5
3 more votes to show rating
add to favorites
×
Save as Personal and add changes to this tab that will be seen only by you. Learn more ›
×
You can save this tab as Personal to edit and correct it or add notes. All changes will be seen only by you. Learn more »
launch autoscroll
font size
0
reset
guitar tuner
edit
Autoscroll
slow
fast
+/-
esc
set tempo
stop
Bowie´s been a part of me almost all my life. His death encouraged me to write down these bass tabs
which I'll upload from time to time.
There's a few notes that are almost unhearable, so I guess this tab is 95% accuarate.
Tabbed by Leo Chiurco

[Intro]
G|---------------------------------|---------------------------------|
D|-7-------------7-6---6---6-------|-4---------------2---------------|
A|---------------------------------|---------------------------------|
E|---------------------------------|---------------------------------|
   1 + + + 2 + + + 3 + + + 4 + + +   1 + + + 2 + + + 3 + + + 4 + + +

G|---------------------------------|---------------------------------|
D|-7-------7-------6---6-----------|-4---------------4-----4---------|
A|---------------------------------|---------------4-----------4---3-|
E|---------------------------------|---------------------------------|
   1 + + + 2 + + + 3 + + + 4 + + +   1 + + + 2 + + + 3 + + + 4 + + +

                                   [Verse 1]
G|---------------------------------|-----------------------------8---|
D|-----------------------------4-6-|-7-----------7---6---------6---6-|
A|-2-------2-----2-2---2-----7-----|-----------7-----------6---------|
E|-------2-----------2-------------|---------------------------------|
   1 + + + 2 + + + 3 + + + 4 + + +   1 + + + 2 + + + 3 + + + 4 + + +

G|---------------------------------|---------------------------------|
D|-4-----4-----4-3-2-----2---------|---------7-----7-6---------6-5---|
A|-----------4---------------2---1-|-0-----7-----7---------6-6-------|
E|---------------------------------|---------------------------------|
   1 + + + 2 + + + 3 + + + 4 + + +   1 + + + 2 + + + 3 + + + 4 + + +

G|---------------------------------|---------------------------------|
D|-4-------4---4-3-2-----2-----4-5-|-6-----6-----------------------6-|
A|-------4-------------------2-----|-----------6---5-4-----4-----4---|
E|---------------------------------|---------------------------4-----|
   1 + + + 2 + + + 3 + + + 4 + + +   1 + + + 2 + + + 3 + + + 4 + + +

G|-4-----4-----4-------------------|---------------6---------------8-|
D|-----------4-----7-----7-----7---|-4-----4-----4---6-----6-----6---|
A|---------------------------7-----|---------4---------------6-------|
E|---------------------------------|---------------------------------|
   1 + + + 2 + + + 3 + + + 4 + + +   1 + + + 2 + + + 3 + + + 4 + + +

                                   [Chorus 1]
G|---------------------------------|---------------------------------|
D|-7-----7-----7---9-----9-9---9---|-------------4-7-------7-----7---|
A|---------7-----------------------|-------4-5-7---------------7---7-|
E|---------------------------------|-5---------------5---------------|
   1 + + + 2 + + + 3 + + + 4 + + +   1 + + + 2 + + + 3 + + + 4 + + +

G|-------------7-7------------------|---------------------------------|
D|-------7---7----7-----------------|-------7-----7---7-----7---5---5-|
A|-5----------------0-----4---5-6-7-|-----------7-----------------7---|
E|----------------------------------|-5-------------------------------|
   1 + + + 2 + +  + 3 + + + 4 + + +   1 + + + 2 + + + 3 + + + 4 + + +
                                    
G|---------------------------------|---------------------------------|
D|---------------------------------|-4-----4-4-------4-----------4---|
A|-7-------7-----7-------7-----7---|---------------4-----------4-----|
E|-------7-------------7-----7-----|---------------------------------|
   1 + + + 2 + + + 3 + + + 4 + + +   1 + + + 2 + + + 3 + + + 4 + + +

G|---------------------------------|---------------------------------|
D|-5---------------5-------2p0-5---|-7-------7-----7-----7-----------|
A|---------------5-----------------|-------7-----------7-------4---5-|
E|---------------------------------|---------------------------------|
   1 + + + 2 + + + 3 + + + 4 + + +   1 + + + 2 + + + 3 + + + 4 + + +

                                   [Verse 2]
G|---------------------------------|-----------9---------------8-----|
D|-----------------------------6-6-|-7-----7-7---7---6-----6-----6---|
A|-7-------7-----7-----7-----7-----|---------------------------------|
E|-------7-----------7-------------|---------------------------------|
   1 + + + 2 + + + 3 + + + 4 + + +   1 + + + 2 + + + 3 + + + 4 + + +

G|---------------------------------|---------------------------------|
D|-4-----4-----4-3-2-----2---------|-----------7---7-6-----6-----6-5-|
A|-----------4---------------2---4-|-0-----7-----7-------------6-----|
E|---------------------------------|---------------------------------|
   1 + + + 2 + + + 3 + + + 4 + + +   1 + + + 2 + + + 3 + + + 4 + + +

G|---------------------------------|---------------------------------|
D|-4-----4-----4---2-----2-----4-5-|-6-----6-------------------------|
A|-----------4---------------2-----|-----------6-5---4-----4-----4/--|
E|---------------------------------|---------------------------4-----|
   1 + + + 2 + + + 3 + + + 4 + + +   1 + + + 2 + + + 3 + + + 4 + + +

G|---------------------------------|---------------6---------------8-|
D|-9-----9-----9-8-7-----7-----7---|-4-----4-----4---6-----6-----6---|
A|-----------9---------------7-----|---------4---------------6-------|
E|---------------------------------|---------------------------------|
   1 + + + 2 + + + 3 + + + 4 + + +   1 + + + 2 + + + 3 + + + 4 + + +

                                   [Chorus 2]
G|---------------9-----------------|---------------------------------|
D|-7-----7-----7---9-----9---9-9---|-------------4-7-------------4-7-|
A|---------7-----------------------|-------4-5-7-----------4---7-----|
E|---------------------------------|-5---------------5---------------|
   1 + + + 2 + + + 3 + + + 4 + + +   1 + + + 2 + + + 3 + + + 4 + + +

G|---------------------------------|---------------------------------|
D|-------7-7-7---------------------|-------7-----5-6-7-----7---------|
A|-5-----------5-4-------4---5-6-7-|-----------7-----------------4---|
E|-----------------5---------------|-5-------------------------5-----|
   1 + + + 2 + + + 3 + + + 4 + + +   1 + + + 2 + + + 3 + + + 4 + + +
                                    
G|---------------------------------|---------------------------------|
D|---------------------------------|-4---------------4-----------4---|
A|-7-----7-7-----7-------7-----7---|---------------4-----------4-----|
E|---------------------7-----7-----|---------------------------------|
   1 + + + 2 + + + 3 + + + 4 + + +   1 + + + 2 + + + 3 + + + 4 + + +

G|---------------------------------|---------------------------------|
D|-5-----------5---5-------2p0-5---|-7-----7-7-----7-----7-----------|
A|-----------5---5-----------------|-----------------5-7-------4---5-|
E|---------------------------------|---------------------------------|
   1 + + + 2 + + + 3 + + + 4 + + +   1 + + + 2 + + + 3 + + + 4 + + +

                                   [Solo]
G|---------------------------------|---------------------------------|
D|---------------------------4-5-6-|-7-------7-------6-------6-------|
A|-7-------7-----7-----7-----------|---------------------------------|
E|-------7-----------7-------------|---------------------------------|
   1 + + + 2 + + + 3 + + + 4 + + +   1 + + + 2 + + + 3 + + + 4 + + +

G|---------------------------------|---------------------------------|
D|-4---------------2-------2-------|-7-------7-------6-------6-------|
A|---------------------------------|---------------------------------|
E|---------------------------------|---------------------------------|
   1 + + + 2 + + + 3 + + + 4 + + +   1 + + + 2 + + + 3 + + + 4 + + +
                                    
G|---------------------------------|---------------------------------|
D|-4-------4-------4-----4---------|-----------------------------4-6-|
A|---------------4-----------4-3---|-2-------2-----2-2---2-----7-----|
E|---------------------------------|-------2-----------2-------------|
   1 + + + 2 + + + 3 + + + 4 + + +   1 + + + 2 + + + 3 + + + 4 + + +

[Verse]
G|-----------------------------8---|---------------------------------|
D|-7-----------7---6-------6-----6-|-4-----4-----4-3-2-----2---------|
A|-----------7-----------6---------|-----------4---------------2-4---|
E|---------------------------------|---------------------------------|
   1 + + + 2 + + + 3 + + + 4 + + +   1 + + + 2 + + + 3 + + + 4 + + +

G|---------------------------------|-----------6---------------------|
D|-----------7-----6---------6-5---|-4-------4---4-3-2-----2-----4-5-|
A|-0-----7-----7---------6---------|-------4-------------------2-----|
E|---------------------------------|---------------------------------|
   1 + + + 2 + + + 3 + + + 4 + + +   1 + + + 2 + + + 3 + + + 4 + + +

G|---------------------------------|-4-----4-----4-------------------|
D|-6-----6-----6-----------------6-|-----------4-----7-----7-----7---|
A|-----------6---6-4-----4-----4---|---------------------------7-----|
E|---------------------------4-----|---------------------------------|
   1 + + + 2 + + + 3 + + + 4 + + +   1 + + + 2 + + + 3 + + + 4 + + +
                                    
G|----------------6---------------8-|---------------------------------|
D|-4------------4---6-----6-----6---|-7-----7-----7-8-9-----9-----9---|
A|--------4-4---------------6-------|---------7-----------------9-----|
E|----------------------------------|---------------------------------|
   1 + + +  2 + + + 3 + + + 4 + + +   1 + + + 2 + + + 3 + + + 4 + + +

G|---------------------------------|---------------------------------|-----------------|
D|-4-----4-----4---6-----6-----6---|-7-----7-----7---9---9-9-9-9-9-9-|-9-9-9-9-9-9-9---|
A|---------4---------------6-------|---------7-----------------------|-----------------|
E|---------------------------------|---------------------------------|-----------------|
   1 + + + 2 + + + 3 + + + 4 + + +   1 + + + 2 + + + 3 + + + 4 + + +   1 + + + 2 + + +

[Chorus 3]
G|---------------------------------|
D|-------------4-7-------7---7-----|
A|-------4-5-7-----------------7-7-|
E|-5---------------5---------------|
   1 + + + 2 + + + 3 + + + 4 + + + 

G|-------------7-7------------------|---------------------------------|
D|-------7---7----7-----------------|-------7-----5-6-7----/10--7-----|
A|-5----------------0-----4---5-6-7-|-----------7-------------------9-|
E|----------------------------------|-5-------------------------------|
   1 + + + 2 + +  + 3 + + + 4 + + +   1 + + + 2 + + + 3 + + + 4 + + +
                                    
G|---------------------------------|---------------------------------|
D|---------------------------------|-4---------------4-----4-----4---|
A|-7-------7-----7-------7-----7---|---------------4-----------4-----|
E|-------7-------------7-----7-----|---------------------------------|
   1 + + + 2 + + + 3 + + + 4 + + +   1 + + + 2 + + + 3 + + + 4 + + +

G|-------------7-------------------|---------------------------------|
D|-5-------------0-5-----5-----5---|-7-----7-7-------7-----7---------|
A|---------------------------5-----|---------------7-----------5---6-|
E|---------------------------------|---------------------------------|
   1 + + + 2 + + + 3 + + + 4 + + +   1 + + + 2 + + + 3 + + + 4 + + +

G|---------------------------------|----------------------------------------------------|
D|---------------------------------|-------------5-------------0-5-5-5--------------2---|
A|-7-----7-7-------7-----7---7-7---|-------2---3---5-------2----------5-------2--5----5-|
E|---------------7-----------------|-3---------------3-----------------3---------------|
   1 + + + 2 + + + 3 + + + 4 + + +   1 + + + 2 + + + 3 + + + 4 +  +  + 1 + + + 2 + + + 

G|---------------------------------|
D|-------------4-7---7---7-----7---|
A|-------4---7---------------7-----|
E|-5---------------5---------------|
   1 + + + 2 + + + 3 + + + 4 + + + 

G|-------------7-------------------|---------------------------------|
D|------/7---7---7-------4---5-7---|-------------------7---7-----7---|
A|-5---------------5---------------|-------4---5-6-7-----------7---7-|
E|---------------------------------|-5---------------5---------------|
   1 + + + 2 + + + 3 + + + 4 + + +   1 + + + 2 + + + 3 + + + 4 + + +

                                   [Outro]
G|-------------7-------------------|---------------------------------|
D|------/7---7---7-------7---7-7---|-7-------7-------6---------------|
A|-5---------------5---------------|---------------------------------|
E|---------------------------------|---------------------------------|
   1 + + + 2 + + + 3 + + + 4 + + +   1 + + + 2 + + + 3 + + + 4 + + +

G|---------------------------------|---------------------------------|
D|-4---------------2---------------|-7-------7-------6-------6-------|
A|---------------------------------|---------------------------------|
E|---------------------------------|---------------------------------|
   1 + + + 2 + + + 3 + + + 4 + + +   1 + + + 2 + + + 3 + + + 4 + + +
                                    
G|---------------------------------|---------------------------------|
D|-4---------------4-----4---------|-----------------------------4-3-|
A|---------------4-----------4-3---|-2---------------2-----2---2-----|
E|---------------------------------|---------------2-----------------|
   1 + + + 2 + + + 3 + + + 4 + + +   1 + + + 2 + + + 3 + + + 4 + + +

G|---------------------------------|
D|-2-------------------------------|
A|---------------------------------|
E|---------------------------------|
   1 + + + 2 + + + 3 + + + 4 + + +


************************************

| p  Pull-off
| /  Slide up

************************************
Suggest correction
Creating personal tab
Creating personal tab
You can edit any tab online and save it as your Personal.

You can edit, replace or remove any tab part or add personal notes – all changes will be seen only by you.

Personal tabs can be accessed anytime from any device, even offline.
Learn more »
Give kudos to tab author, rate the tab!
1 2 3 4 5
comments
print report bad tab
guest
You may want to rate the tab now too:
select rating
Wanna post a correction for this tab? Suggest correction