Oops, an error
Loading. Please wait.

Sorrow Tab

26,912 views 70 this week
2 commentsread comments
1 2 3 4 5
excellent!
x 25
add to favorites
launch autoscroll
font size
0
reset
how to read this tab
guitar tuner
Tab Pro tools
  • play this tab
  • loop segment
  • change instrument
  • show fretboard
  • metronome
Autoscroll
slow
fast
+/-
esc
set tempo
stop
Contributor
Difficulty
novice
Sorrow by David Bowie

                   G
E---------------------------------|
B---------------------------------|
G---------------------------------|
D--0--4--5--5p4\2--0--4--5--5p4\2-|
A---------------------------------|
E---------------------------------|
     G
With your long blonde hair and your eyes of blue
                      C                        G
The only thing I ever got from you was sorrow, sorrow
G
You acted funny trying to spend my money
                              C                           G
You're out there playing your high class games of sorrow, sorrow

G
You never do what you know you oughta
                            C                        G
Something tells me you're a Devil's daughter sorrow, sorrow
D      C   G
Ahhhh, oo, oooo

Solo
  G
E---------------------------------------------------|
B-12--10--8-------------8--12--10--8-------------8--|
G------------9--7-7-5-4---------------9--7-7-5-4----|
D---------------------------------------------------|
A---------------------------------------------------|
E---------------------------------------------------|

  C                              G
E-12p10-7-8p7----12h15-12-10--8----------------------------|
B-------------8------------------12--10--8-8-------------8-|
G--------------------------------------------9--7-7-5-4----|
D----------------------------------------------------------|
A----------------------------------------------------------|
E----------------------------------------------------------|

G
I tried to find her 'Cause I can't resist her (I tried to find her)
                      C                         G
I never knew just how much I missed her sorrow, sorrow
     G
With your long blonde hair and your eyes of blue
                          C                    G
The only thing I ever got from you was sorrow, sorrow
D
Oh-oh-oh-oh
C            G
Oh-oh-oh, ho-ho
          F
With your long blonde hair
           G
I couldn't sleep last night
          F
With your long blonde hair
F
Hu hu hu
Hu hu hu yeah
Hu hu hu
Hu hu hu yeah
Hu hu hu
Hu hu hu yeah

I reckon this is about right-ish…
comments
print report bad tab
2 comments total.
+1 reply
MrShears wrote on May 12 2011, 04:05 am

The riff at the start should be played on the G string

0 reply
Dalton Lee wrote on February 7 2016, 01:59 am

That riff is the bass line, doubled on violins.

I want to post or [tab]
guest
You may want to rate the tab now too:
select rating
Please do not post tabs as comments. Select "correction" instead!