Oops, an error
Loading. Please wait.

Sound And Vision bass

version 2
version 2

Whole song

Interactive

67 views 6 this week
no commentswrite comment
1 2 3 4 5
3 more votes to show rating
add to favorites
×
Save as Personal and add changes to this tab that will be seen only by you. Learn more ›
×
You can save this tab as Personal to edit and correct it or add notes. All changes will be seen only by you. Learn more »
launch autoscroll
font size
0
reset
guitar tuner
backing track
0:00
0:00
edit
Autoscroll
slow
fast
+/-
esc
set tempo
stop
David Bowie´s been a part of me almost all my life. His death encouraged me to write down these bass tabs
which I'll upload from time to time.

Tabbed by Leo Chiurco

[Intro]
G|---------------------------------|-----------------4---------------|
D|---------------------------------|---------------------5-----------|
A|---------------------------------|---------------------------------|
E|-3-----3-3---3-------3---3-----x-|-3-----3---x-3-----------5---7---|
   1 + + + 2 + + + 3 + + + 4 + + +   1 + + + 2 + + + 3 + + + 4 + + +

G|---------------------------------|---------------------------------|
D|---------------------------------|---------------------------------|
A|---------------------------------|-------------------------2---3---|
E|-5-----5---x-5-------3---5-----x-|-5-----5-----5-------5-----------|
   1 + + + 2 + + + 3 + + + 4 + + +   1 + + + 2 + + + 3 + + + 4 + + +

G|---------------------------------|---------------------------------|
D|---------------------------------|---------------------------------|
A|-5-----5---x-5-------5---5-------|-5-----5---x-5-------2-----------|
E|-----------------------------5---|-------------------------5---4---|
   1 + + + 2 + + + 3 + + + 4 + + +   1 + + + 2 + + + 3 + + + 4 + + +

G|---------------------------------|---------------------------------|
D|---------------------------------|-----------------------------5---|
A|---------------------------------|-----x-2---x-3---4---5-5/7-------|
E|-3-----3---x-3-------3---3---x---|-3-------------------------------|
   1 + + + 2 + + + 3 + + + 4 + + +   1 + + + 2 + + + 3 + + + 4 + + +

G|---------------------------------|---------------------------------|
D|---------------------------------|---------------------------------|
A|---------------------------------|---------------------------------|
E|-3-----3---3-3-----3-3---3---0---|-3-----3---x-3-------3---2---4---|
   1 + + + 2 + + + 3 + + + 4 + + +   1 + + + 2 + + + 3 + + + 4 + + +

G|---------------------------------|---------------------------------|
D|---------------------------------|-7-----7---7-7-------7---7-------|
A|-----------------------------7---|-----------------------------7---|
E|-5-----5---x-5-------5---5-------|---------------------------------|
   1 + + + 2 + + + 3 + + + 4 + + +   1 + + + 2 + + + 3 + + + 4 + + +

G|---------------------------------|-----------------5---4-----------|
D|---------------------------------|-------------------------7---4---|
A|-5-----5---x-5-------5---5-------|-5-----5---x-5-------------------|
E|-----------------------------5---|---------------------------------|
   1 + + + 2 + + + 3 + + + 4 + + +   1 + + + 2 + + + 3 + + + 4 + + +

G|---------------------------------|---------------------------------|
D|-5-----5-----5-----------5-------|-5-----5---5-5-------------------|
A|---------------------5-------5---|---------------------------------|
E|---------------------------------|-----------------0-------1---2---|
   1 + + + 2 + + + 3 + + + 4 + + +   1 + + + 2 + + + 3 + + + 4 + + +

G|---------------------------------|-----------------4---------------|
D|---------------------------------|---------------------5-----------|
A|---------------------------------|---------------------------------|
E|-3-----3-----3-------3---3---2---|-3-----3---x-3-----------5---7---|
   1 + + + 2 + + + 3 + + + 4 + + +   1 + + + 2 + + + 3 + + + 4 + + +

G|---------------------------------|---------------------------------|
D|---------------------------------|---------------------------------|
A|---------------------------------|---------------------------------|
E|-5-----5---x-5-------3---5---3---|-5-----5---x-5-------5---5---0---|
   1 + + + 2 + + + 3 + + + 4 + + +   1 + + + 2 + + + 3 + + + 4 + + +

G|---------------------------------|---------------------------------|
D|---------------------------------|---------------------------------|
A|---------------------------------|---------------------------------|
E|-3-----3---x-3-----x-3---3---0---|-3-----3---x-3-------0---1---2---|
   1 + + + 2 + + + 3 + + + 4 + + +   1 + + + 2 + + + 3 + + + 4 + + +

G|---------------------------------|---------------------------------|
D|---------------------------------|---------------------------------|
A|---------------------------------|---------------------------------|
E|-3-----3---x-3-----x-3---3---0---|-3-----3---x-3-------3---2---4---|
   1 + + + 2 + + + 3 + + + 4 + + +   1 + + + 2 + + + 3 + + + 4 + + +

G|---------------------------------|---------------------------------|
D|---------------------------------|---------------------------------|
A|---------------------------------|---------------------------------|
E|-5-----5---x-5-----x-5---5---3---|-5-----5---x-5-------5---3---5---|
   1 + + + 2 + + + 3 + + + 4 + + +   1 + + + 2 + + + 3 + + + 4 + + +

G|---------------------------------|---------------------------------|
D|---------------------------------|---------------------------------|
A|---------------------------------|---------------------0---1---2---|
E|-3-----3---x-3-----x-3---3---0---|-3-----3---x-3---3---------------|
   1 + + + 2 + + + 3 + + + 4 + + +   1 + + + 2 + + + 3 + + + 4 + + +

G|---------------------------------|---------------------------------|
D|---------------------------------|---------------------------------|
A|-3-----------------------------x-|-3-------------------------------|
E|---------------------3---3-------|---------------------3---3---0---|
   1 + + + 2 + + + 3 + + + 4 + + +   1 + + + 2 + + + 3 + + + 4 + + +

G|---------------------------------|---------------------------------|
D|---------------------------------|---------------------------------|
A|---------------------------------|---------------------0---1---2---|
E|-3-----3---x-3-------3---3---0---|-3-----3---x-3-------------------|
   1 + + + 2 + + + 3 + + + 4 + + +   1 + + + 2 + + + 3 + + + 4 + + +

G|---------------------------------|---------------------------------|
D|---------------------------------|---------------------------------|
A|-3---------------------------2---|-3-------------------------------|
E|---------------------3---3-------|---------------------3---3---0---|
   1 + + + 2 + + + 3 + + + 4 + + +   1 + + + 2 + + + 3 + + + 4 + + +

G|---------------------------------|---------------------------------|
D|---------------------5---5-------|---------------------5-----------|
A|-----------------------------5---|---------------------------------|
E|-3-----3---x-3-------------------|-3-----3---x-3-----------3---4---|
   1 + + + 2 + + + 3 + + + 4 + + +   1 + + + 2 + + + 3 + + + 4 + + +

G|---------------------------------|---------------------------------|
D|-------------------------7-------|---------------------------------|
A|---------------------7-------6---|-5-----5---x-5-------5---0---5---|
E|-5-----5-----5-------------------|---------------------------------|
   1 + + + 2 + + + 3 + + + 4 + + +   1 + + + 2 + + + 3 + + + 4 + + +

G|---------------------------------|
D|---------------------------------|
A|-7-------------------------------|
E|---------------------------------|
   1 + + + 2 + + + 3 + + + 4 + + +   

[Verse 1] "Don't you wonder sometimes ..."
G|---------------------------------|-----------------4---------------|
D|---------------------------------|---------------------5-----------|
A|---------------------------------|---------------------------------|
E|-3-----3-3---3-------3---3-----x-|-3-----3---x-3-----------5---7---|
   1 + + + 2 + + + 3 + + + 4 + + +   1 + + + 2 + + + 3 + + + 4 + + +

G|---------------------------------|---------------------------------|
D|---------------------------------|-------------------------7-------|
A|---------------------------------|-------------------x-7-------7---|
E|-5-----5-----5-----x-3---5---3---|-5-----5---x-5-------------------|
   1 + + + 2 + + + 3 + + + 4 + + +   1 + + + 2 + + + 3 + + + 4 + + +

G|---------------------------------|-------------4---5---4-----------|
D|---------------------------------|-------4-----------------7-------|
A|-5-----5---x-5-----x-5---5---5---|-5---------------------------5h7-|
E|---------------------------------|---------------------------------|
   1 + + + 2 + + + 3 + + + 4 + + +   1 + + + 2 + + + 3 + + + 4 + + +

G|---------------------------------|---------------------------------|
D|-5-----5---x-5-----x-----5-------|-5---------------------------5---|
A|---------------------5-------5---|-----x-2---x-3---4---5-5/7-------|
E|---------------------------------|---------------------------------|
   1 + + + 2 + + + 3 + + + 4 + + +   1 + + + 2 + + + 3 + + + 4 + + +

"Blue, blue electric blue ..."
G|---------------------------------|---------------------------------|
D|---------------------------------|---------------------------------|
A|---------------------------------|---------------------------------|
E|-3-----3---x-3-----x-3---3---0---|-3-----3---x-3-------3---2---4---|
   1 + + + 2 + + + 3 + + + 4 + + +   1 + + + 2 + + + 3 + + + 4 + + +

G|---------------------------------|---------------------------------|
D|---------------------------------|-7-----7---x-7-------7-----------|
A|-----------------------------7---|-------------------------7---5h7-|
E|-5-----5---x-5-------5---5-------|---------------------------------|
   1 + + + 2 + + + 3 + + + 4 + + +   1 + + + 2 + + + 3 + + + 4 + + +

G|---------------------------------|---------------------------------|
D|-5-----5---x-5-------5---5-------|-5-----5---x-5-------5-----------|
A|-----------------------------5---|---------------------------------|
E|---------------------------------|-------------------------0---2---|
   1 + + + 2 + + + 3 + + + 4 + + +   1 + + + 2 + + + 3 + + + 4 + + +

"Pale blinds drawn all day ..."
G|---------------------------------|-----------------4---------------|
D|---------------------------------|---------------------5-----------|
A|---------------------------------|---------------------------------|
E|-3-----3-----3-----x-3---3---3---|-3-----3---x-3-----------5---7---|
   1 + + + 2 + + + 3 + + + 4 + + +   1 + + + 2 + + + 3 + + + 4 + + +

G|---------------------------------|---------------------------------|
D|---------------------------------|---------------------------------|
A|---------------------------------|---------------------------------|
E|-5-----5---x-5-----x-3---5---3---|-5-----5---x-5-------5-------5---|
   1 + + + 2 + + + 3 + + + 4 + + +   1 + + + 2 + + + 3 + + + 4 + + +

G|---------------------------------|---------------------------------|
D|---------------------------------|-5-----5---x-5---5---------------|
A|-----------------------------5---|---------------------0---1---2---|
E|-3-----3---x-3-----x-3---3-------|---------------------------------|
   1 + + + 2 + + + 3 + + + 4 + + +   1 + + + 2 + + + 3 + + + 4 + + +

"I will sit right down..."
G|---------------------------------|---------------------------------|
D|---------------------------------|---------------------------------|
A|-3-----------------------------x-|-3-------------------------------|
E|---------------------3---3-------|---------------------3---3---0---|
   1 + + + 2 + + + 3 + + + 4 + + +   1 + + + 2 + + + 3 + + + 4 + + +

G|---------------------------------|---------------------------------|
D|---------------------5-----------|---------------------------------|
A|-------------------------5-------|---------------------0---1---2---|
E|-3-----3---x-3-----------------x-|-3-----3---x-3-------------------|
   1 + + + 2 + + + 3 + + + 4 + + +   1 + + + 2 + + + 3 + + + 4 + + +

G|---------------------------------|---------------------------------|
D|---------------------------------|---------------------------------|
A|-3---------------------------2---|-3-------------------------------|
E|---------------------3---3-------|---------------------3---3---0---|
   1 + + + 2 + + + 3 + + + 4 + + +   1 + + + 2 + + + 3 + + + 4 + + +

G|---------------------------------|---------------------------------|
D|---------------------------------|-----------------5---------------|
A|---------------------------------|---------------------5-----------|
E|-3-----3---x-3-----x-3---3---0---|-3-----3---x-3-----------3---4---|
   1 + + + 2 + + + 3 + + + 4 + + +   1 + + + 2 + + + 3 + + + 4 + + +

G|---------------------------------|---------------------------------|
D|-------------------------7-------|---------------------------------|
A|---------------------7-------6---|-5-----5---x-5-------5---0---5---|
E|-5-----5-----5-------------------|---------------------------------|
   1 + + + 2 + + + 3 + + + 4 + + +   1 + + + 2 + + + 3 + + + 4 + + +

G|---------------------------------|
D|---------------------------------|
A|-7-------------------------------|
E|---------------------------------|
   1 + + + 2 + + + 3 + + + 4 + + +   

[Outro] "Don't you wonder sometimes ..."
G|---------------------------------|-----------------4---------------|
D|---------------------------------|---------------------5-----------|
A|---------------------------------|---------------------------------|
E|-3-----x-3---3-----x-3---3---0---|-3-----3---x-3-----------5---7---|
   1 + + + 2 + + + 3 + + + 4 + + +   1 + + + 2 + + + 3 + + + 4 + + +

G|---------------------------------|---------------------------------|
D|---------------------------------|-7-----7---x-7-----x-7---7-------|
A|-----------------------------7---|-----------------------------7---|
E|-5-----5---x-5-----x-5---5-------|---------------------------------|
   1 + + + 2 + + + 3 + + + 4 + + +   1 + + + 2 + + + 3 + + + 4 + + +

G|---------------------------------|-------------4---5---4-----------|
D|---------------------------------|-------4-----------------7-------|
A|-5-----5---x-5-----x-5---5-------|-5---------------------------7---|
E|---------------------------------|---------------------------------|
   1 + + + 2 + + + 3 + + + 4 + + +   1 + + + 2 + + + 3 + + + 4 + + +

G|---------------------------------|-------4---4-5---6---7---7---9---|
D|-5-----5-----5-----------5-------|-5-------------------------------|
A|---------------------5-----------|---------------------------------|
E|---------------------------------|---------------------------------|
   1 + + + 2 + + + 3 + + + 4 + + +   1 + + + 2 + + + 3 + + + 4 + + +

G|---------------------------------|---------------------------------|
D|-5-----5---x-5-------------------|-5-----5---x-5-------------------|
A|-------------------x-5---7---5---|---------------------------------| (Fade out)
E|---------------------------------|---------------------------------|
   1 + + + 2 + + + 3 + + + 4 + + +   1 + + + 2 + + + 3 + + + 4 + + +


***********************************

| /  Slide up
| h  Hammer on
| x  Dead note

***********************************

            
            
Suggest correction
Creating personal tab
Creating personal tab
You can edit any tab online and save it as your Personal.

You can edit, replace or remove any tab part or add personal notes – all changes will be seen only by you.

Personal tabs can be accessed anytime from any device, even offline.
Learn more »
Give kudos to tab author, rate the tab!
1 2 3 4 5
comments
print report bad tab
guest
You may want to rate the tab now too:
select rating
Wanna post a correction for this tab? Suggest correction