Oops, an error
Loading. Please wait.
We have an official Starman tab made by UG professional guitarists. Check out the tab »
×

Starman tab

version 3
version 3

Whole song

Interactive

Video

  • Accurate chord voicing, rhythm explained, performa... Show more
1,105 views 9 this week
no commentswrite comment
1 2 3 4 5
1 last vote to show rating
add to favorites
×
Save as Personal and add changes to this tab that will be seen only by you. Learn more ›
×
You can save this tab as Personal to edit and correct it or add notes. All changes will be seen only by you. Learn more »
launch autoscroll
font size
0
reset
how to read this tab
guitar tuner
edit
Autoscroll
slow
fast
+/-
esc
set tempo
stop
Author
Difficulty
STARMAN

As recorded by David Bowie
(From the 1972 Album THE RISE AND FALL OF ZIGGY STARDUST AND THE SPIDERS FROM MARS)

Words and Music by David Bowie

Transcribed by Slowhand 


Gtr I (E A D G B E) - 'Mick Ronson - Electric Guitar'
Gtr II (E A D G B E) - 'David Bowie - Acoustic 12-string Guitar'
Gtr III (E A D G B E) - 'Mick Ronson - Electric Guitar'


 Intro
  Moderately Q=96
  BbmaGm13/EBbmaGm13/E  Bbmaj7Gm13/EBbmaj7    Fmaj7
 4/4
  Gtr II (Ac. 12-string Gtr.)
  E E E S S E E E S S    E  E E S S E E E E   E E E S S E E E S S
|-1-1-0-0-0-1-1-0-0-0-|--1--1-0-0-0-1-1-1-0-|-0-0-0-0-0-0-0-0-0-0--|
|-3-3-3-3-3-3-3-3-3-3-|--3--3-3-3-3-3-3-3-0-|-1-1-1-1-1-1-1-1-1-1--|
|-2-2-0-0-0-2-2-0-0-0-|--2--2-0-0-0-2-2-2-0-|-2-2-2-2-2-2-2-2-2-2--|
|-3-3-3-3-3-3-3-3-3-3-|--3--3-3-3-3-3-3-3-0-|-3-3-3-3-3-3-3-3-3-3--|
|-1-1-1-1-1-1-1-1-1-1-|--1--1-1-1-1-1-1-1-0-|-3-3-3-3-3-3-3-3-3-3--|
|-0-0-0-0-0-0-0-0-0-0-|--0--0-0-0-0-0-0-0-0-|-1-1-1-1-1-1-1-1-1-1--|
|
| Gtr III (El. Gtr.)
| W                     +W                    W
|---------------------|---------------------|----------------------|
|---------------------|---------------------|----------------------|
|---------------------|---------------------|----------------------|
|---------------------|---------------------|----------------------|
|-1-------------------|-(1)-----------------|----------------------|
|---------------------|---------------------|-1--------------------|


                        BbmaGm13/EBbmaGm13/E  Bbmaj7Gm13/EBbmaj7
   E  E E S S E E E E   E E E S S E E E S S    E  E E S S E E E E
|--0--0-0-0-0-0-0-0-0-|-1-1-0-0-0-1-1-0-0-0-|--1--1-0-0-0-1-1-1-0-|
|--1--1-1-1-1-1-1-1-0-|-3-3-3-3-3-3-3-3-3-3-|--3--3-3-3-3-3-3-3-0-|
|--2--2-2-2-2-2-2-2-0-|-2-2-0-0-0-2-2-0-0-0-|--2--2-0-0-0-2-2-2-0-|
|--3--3-3-3-3-3-3-3-0-|-3-3-3-3-3-3-3-3-3-3-|--3--3-3-3-3-3-3-3-0-|
|--3--3-3-3-3-3-3-3-0-|-1-1-1-1-1-1-1-1-1-1-|--1--1-1-1-1-1-1-1-0-|
|--1--1-1-1-1-1-1-1-0-|-0-0-0-0-0-0-0-0-0-0-|--0--0-0-0-0-0-0-0-0-|
|
| +W                    W                     +W
|---------------------|---------------------|---------------------|
|---------------------|---------------------|---------------------|
|---------------------|---------------------|---------------------|
|---------------------|---------------------|---------------------|
|---------------------|-1-------------------|-(1)-----------------|
|-(1)-----------------|---------------------|---------------------|


                                               1st & 2nd Verses
  Fmaj7                                         Gm
  E E E S S E E E S S    E  E E S S E E E E     E E E S S  S  S E E S S
|-0-0-0-0-0-0-0-0-0-0-|--0--0-0-0-0-0-0-0-0-||--3-3-3-x-x--x--x-3-3-3-3--|
|-1-1-1-1-1-1-1-1-1-1-|--1--1-1-1-1-1-1-1-0-||o-3-3-3-x-x--x--x-3-3-3-3--|
|-2-2-2-2-2-2-2-2-2-2-|--2--2-2-2-2-2-2-2-0-||--3-3-3-x-x--x--x-3-3-3-3--|
|-3-3-3-3-3-3-3-3-3-3-|--3--3-3-3-3-3-3-3-0-||--5-5-5-x-x--x--x-5-5-5-5--|
|-3-3-3-3-3-3-3-3-3-3-|--3--3-3-3-3-3-3-3-0-||o-5-5-5-x-x--x--x-5-5-5-5--|
|-1-1-1-1-1-1-1-1-1-1-|--1--1-1-1-1-1-1-1-0-||--3-3-3-x-x--x--x-3-3-3-3--|
|
| W                     +W                      H         +Q.       E
|---------------------|---------------------||---------------------------|
|---------------------|---------------------||o--------------------------|
|---------------------|---------------------||---------------------------|
|---------------------|---------------------||---------------------------|
|---------------------|---------------------||o---------------------5----|
|-1-------------------|-(1)-----------------||--3---------(3)------------|


                         F
  E E E S S +S  S E Q    E E E S S +S  S E E S S   E E E S S S S E E S S
|-3-3-3-x-x-(x)-x-x-3--|-1-1-1-x-x-(x)-x-x-1-1-1-|-1-1-1-x-x-x-x-1-1-x-x--|
|-3-3-3-x-x-(x)-x-x-3--|-1-1-1-x-x-(x)-x-x-1-1-1-|-1-1-1-x-x-x-x-1-1-x-x--|
|-3-3-3-x-x-(x)-x-x-3--|-2-2-2-x-x-(x)-x-x-2-2-2-|-2-2-2-x-x-x-x-2-2-x-x--|
|-5-5-5-x-x-(x)-x-x-5--|-3-3-3-x-x-(x)-x-x-3-3-3-|-3-3-3-x-x-x-x-3-3-x-x--|
|-5-5-5-x-x-(x)-x-x-5--|-3-3-3-x-x-(x)-x-x-3-3-3-|-3-3-3-x-x-x-x-3-3-x-x--|
|-3-3-3-x-x-(x)-x-x-3--|-1-1-1-x-x-(x)-x-x-1-1-1-|-1-1-1-x-x-x-x-1-1-x-x--|
|
| W                      W                         W
|----------------------|-------------------------|------------------------|
|----------------------|-------------------------|------------------------|
|----------------------|-------------------------|------------------------|
|----------------------|-------------------------|------------------------|
|----------------------|-------------------------|------------------------|
|-3--------------------|-------------------------|------------------------|


  C                         C7                      F        Ab    Bb
  E E E S S +S  S E E S S   E E E S S +S  S E E E   Q  E S S S S S S Q
|-0-0-0-x-x-(x)-x-0-0-0-0-|-0-0-0-0-0-(0)-0-0-0-0-|-1--1-x-x-4-4-4-6-6\---|
|-1-1-1-x-x-(x)-x-1-1-1-1-|-1-1-1-1-1-(1)-1-1-1-1-|-1--1-x-x-4-4-4-6-6\---|
|-0-0-0-x-x-(x)-x-0-0-0-0-|-3-3-3-3-3-(3)-3-3-3-3-|-2--2-x-x-5-5-5-7-7\---|
|-2-2-2-x-x-(x)-x-2-2-2-2-|-2-2-2-2-2-(2)-2-2-2-2-|-3--3-x-x-6-6-6-8-8\---|
|-3-3-3-x-x-(x)-x-3-3-3-3-|-3-3-3-3-3-(3)-3-3-3-3-|-3--3-x-x-6-6-6-8-8\---|
|-3-3-3-x-x-(x)-x-3-3-3-3-|-0-0-0-0-0-(0)-0-0-0-0-|-1--1-x-x-4-4-4-6-6\---|


  Gm                                               F
  E E E S S +S  S E E S S   E E E S S +S  S E Q    E E E S S +S  S E E S S
|-3-3-3-x-3-(3)-3-3-3-3-3-|-3-3-3-3-3-(3)-3-3-3--|-1-1-1-1-1-(1)-1-1-1-1-1--|
|-3-3-3-x-3-(3)-3-3-3-3-3-|-3-3-3-3-3-(3)-3-3-3--|-1-1-1-1-1-(1)-1-1-1-1-1--|
|-3-3-3-x-3-(3)-3-3-3-3-3-|-3-3-3-3-3-(3)-3-3-3--|-2-2-2-2-2-(2)-2-2-2-2-2--|
|-5-5-5-x-5-(5)-5-5-5-5-5-|-5-5-5-5-5-(5)-5-5-5--|-3-3-3-3-3-(3)-3-3-3-3-3--|
|-5-5-5-x-5-(5)-5-5-5-5-5-|-5-5-5-5-5-(5)-5-5-5--|-3-3-3-3-3-(3)-3-3-3-3-3--|
|-3-3-3-x-3-(3)-3-3-3-3-3-|-3-3-3-3-3-(3)-3-3-3--|-1-1-1-1-1-(1)-1-1-1-1-1--|
|
| Gtr III
| H         +Q.       E     W                      W
|-------------------------|----------------------|--------------------------|
|-------------------------|----------------------|--------------------------|
|-------------------------|----------------------|--------------------------|
|-------------------------|----------------------|--------------------------|
|---------------------5---|----------------------|--------------------------|
|-3---------(3)-----------|-3--------------------|--------------------------|


                          C                         C7                  Gm
  E E E S S S S E E S S   E E E S S +S  S E E S S   E E E S S +S  S E E E
|-1-1-1-1-1-1-1-1-1-1-1-|-0-0-0-0-0-(0)-0-0-0-0-0-|-0-0-0-x-x-(x)-x-0-0----|
|-1-1-1-1-1-1-1-1-1-1-1-|-1-1-1-1-1-(1)-1-1-1-1-1-|-1-1-1-x-x-(x)-x-1-1-3--|
|-2-2-2-2-2-2-2-2-2-2-2-|-0-0-0-0-0-(0)-0-0-0-0-0-|-3-3-3-x-x-(x)-x-3-3-3--|
|-3-3-3-3-3-3-3-3-3-3-3-|-2-2-2-2-2-(2)-2-2-2-2-2-|-2-2-2-x-x-(x)-x-2-2-0--|
|-3-3-3-3-3-3-3-3-3-3-3-|-3-3-3-3-3-(3)-3-3-3-3-3-|-3-3-3-x-x-(x)-x-3-3----|
|-1-1-1-1-1-1-1-1-1-1-1-|-3-3-3-3-3-(3)-3-3-3-3-3-|-0-0-0-x-x-(x)-x-0-0-3--|


  A
   W
|--0------------------------------------|
|--2------------------------------------|
|--2------------------------------------|
|--2------------------------------------|
|--0------------------------------------|
|---------------------------------------|
|
| Gtr III
|  S  E  S  E  S  S  +S   S  E  S  S  E
|-17-17-17-17-17-17-(17)-17-17-17-17-17-|
|---------------------------------------|
|-14-14-14-14-14-14-(14)-14-14-14-14-14-|
|---------------------------------------|
|---------------------------------------|
|---------------------------------------|


                                          Chorus
                                        $
  G                                        F
   W                                       Q  E E E E E E
|--3------------------------------------||-1--1-1-1-1-1-1--|
|--0------------------------------------||-1--1-1-1-1-1-1--|
|--0------------------------------------||-2--2-2-2-2-2-2--|
|--0------------------------------------||-3--3-3-3-3-3-3--|
|--2------------------------------------||-3--3-3-3-3-3-3--|
|--3------------------------------------||-1--1-1-1-1-1-1--|
|
|  S  E  S  E  S  S  +S   S  E  S  S  E    W
|-17-17-17-17-17-17-(17)-17-17-17-17-17-||-----------------|
|---------------------------------------||-----------------|
|-14-14-14-14-14-14-(14)-14-14-14-14-14-||-----------------|
|---------------------------------------||-----------------|
|---------------------------------------||-----------------|
|---------------------------------------||-----------------|


  Dm               Am     C/G       C7               F
  Q  E E E E E E   Q  E E E E E E   Q  E E E E E E   Q  E E E E E E
|-1--1-1-1-1-1-1-|-0--0-0-0-0-0-0-|-0--0-0-0-0-0-0-|-1--1-1-1-1-1-1-|
|-3--3-3-3-3-3-3-|-1--1-1-1-1-1-1-|-1--1-1-1-1-1-1-|-1--1-1-1-1-1-1-|
|-2--2-2-2-2-2-2-|-2--2-2-0-0-0-0-|-3--3-3-3-3-3-3-|-2--2-2-2-2-2-2-|
|-0--0-0-0-0-0-0-|-2--2-2-2-2-2-2-|-2--2-2-2-2-2-2-|-3--3-3-3-3-3-3-|
|----------------|-0--0-0-3-3-3-3-|-3--3-3-3-3-3-3-|-3--3-3-3-3-3-3-|
|----------------|--------3-3-3-3-|-0--0-0-0-0-0-0-|-1--1-1-1-1-1-1-|


  Dm               Am     C/G       C7               Bb     Bbm
  Q  E E E E E E   Q  E E E E E E   Q  E E E E E E   Q  E E E E E E
|-1--1-1-1-1-1-1-|-0--0-0-0-0-0-0-|-0--0-0-0-0-0-0-|----------------|
|-3--3-3-3-3-3-3-|-1--1-1-1-1-1-1-|-1--1-1-1-1-1-1-|-3--3-3-2-2-2-2-|
|-2--2-2-2-2-2-2-|-2--2-2-0-0-0-0-|-3--3-3-3-3-3-3-|-3--3-3-3-3-3-3-|
|-0--0-0-0-0-0-0-|-2--2-2-2-2-2-2-|-2--2-2-2-2-2-2-|-3--3-3-3-3-3-3-|
|----------------|-0--0-0-3-3-3-3-|-3--3-3-3-3-3-3-|-1--1-1-1-1-1-1-|
|----------------|--------3-3-3-3-|-0--0-0-0-0-0-0-|----------------|


                D.S. al Coda
  F      D7/F#     Gm     C7
  Gtr I (El. Gtr. w/ dist.)
  W                W
|----------------|-------------||
|----------------|-------------||
|----------------|-------------||
|----------------|-------------||
|----------------|-------------||
|----------------|-------------||
|
| Gtr II
| Q  E E E E E E   Q  E E H
|-1--1-1-2-2-2-2-|--------0----||
|-1--1-1-1-1-1-1-|-3--3-3-1----||
|-2--2-2-2-2-2-2-|-3--3-3-3----||
|-3--3-3-0-0-0-0-|-0--0-0-2----||
|-3--3-3-0-0-0-0-|--------3----||
|-1--1-1-2-2-2-2-|-3--3-3-0----||
|
| Gtr III
| W                W
|----------------|-------------||
|----------------|-------------||
|----------------|-------------||
|----------------|-------------||
|----------------|-------------||
|----------------|-------------||


 Guitar Solo
  Bb                            F
  Q      +E   E    +E   Q   E   Q.     E +E  Q   E
|-----------------------------|--------------------|
|-----------------------------|--------------------|
|-5b7====(5)r-5b7==(5)r-5---3-|-2------2-(2)-3---5-|
|-----------------------------|--------------------|
|-----------------------------|--------------------|
|-----------------------------|--------------------|
|
| E    E  E   E    +E   E E E   E  E E E +E  E E E
|-----------------------------|-1--1-1-1-(1)-1-1-1-|
|-3----3--3---3----(3)--3-3-3-|-1--1-1-1-(1)-1-1-1-|
|-3----3--3---3----(3)--3-3-3-|-2--2-2-2-(2)-2-2-2-|
|-3----3--3---3----(3)--3-3-3-|-3--3-3-3-(3)-3-3-3-|
|-1----1--1---1----(1)--1-1-1-|-3--3-3-3-(3)-3-3-3-|
|-----------------------------|-1--1-1-1-(1)-1-1-1-|
|
| E    E  E   E     E   E E E   E  E E E  E  E E E
|-----------------------------|--------------------|
|-----------------------------|--------------------|
|-----------------------------|--------------------|
|-3----3--5---3-----x---5-3---|--------------------|
|-1----1--1---1-----x---1-1---|-3--3-5-3--3--3-5-3-|
|---------------------------0-|-1--1-1-1--1--1-1---|


                                            To Coda
  C                             F            Gm7 F
  E    +Q     E    +E   Q   E   Q.     E +E  Q   E
|-----------------------------|---------------------|
|-----------------------------|---------------------|
|-5b9==(5)r---7b9==(7)r-7---5s|=2------2-(2)-3---5--|
|-----------------------------|---------------------|
|-----------------------------|---------------------|
|-----------------------------|---------------------|
|
| E     E   E E    +E   E E E   E  E E E +E  E E E
|-----------------------------|-1--1-1-1-(1)-3-3-1--|
|-5-----5---5-5----(5)--5-5-5-|-1--1-1-1-(1)-3-3-1--|
|-5-----5---5-5----(5)--5-5-5-|-2--2-2-2-(2)-3-3-2--|
|-5-----5---5-5----(5)--5-5-5-|-3--3-3-3-(3)-5-5-3--|
|-3-----3---3-3----(3)--3-3-3-|-3--3-3-3-(3)-5-5-3--|
|-3-----3---3-3----(3)--3-3-3-|-1--1-1-1-(1)-3-3-1--|
|
| E     E   E E     E   E E E   E  E E E  E  Q   E
|-----------------------------|---------------------|
|-----------------------------|---------------------|
|-----------------------------|---------------------|
|-5-----5---7-5-----x---5-7---|------------------2--|
|-3-----3---3-3-----x---3-3---|-3--3-x-3--x--5---0--|
|---------------------------0-|-1--1-x-1--x--3------|


  Bb                                     F
  S    +S     +E  +E   E    +E   Q   E   Q.     E +E  Q   E
|--------------------------------------|----------------------|
|--------------------------------------|----------------------|
|-5pb7r(5)b7==(5)-(5)r-5b7==(5)r-5---3-|-2------2-(2)-3---5---|
|--------------------------------------|----------------------|
|--------------------------------------|----------------------|
|--------------------------------------|----------------------|
|
| E            E   E   E    +E   E E E   E  E E E +E  E E E
|--------------------------------------|-1--1-1-1-(1)-1-1-1---|
|-3------------3---3---3----(3)--3-3-3-|-1--1-1-1-(1)-1-1-1---|
|-3------------3---3---3----(3)--3-3-3-|-2--2-2-2-(2)-2-2-2---|
|-3------------3---3---3----(3)--3-3-3-|-3--3-3-3-(3)-3-3-3---|
|-1------------1---1---1----(1)--1-1-1-|-3--3-3-3-(3)-3-3-3---|
|--------------------------------------|-1--1-1-1-(1)-1-1-1---|
|
| E            E   E   E     E   E E E   E  E E E  E  E E E
|--------------------------------------|----------------------|
|--------------------------------------|----------------------|
|--------------------------------------|----------------------|
|-3------------3---5---3-----x---5-3---|----------------------|
|-1------------1---1---1-----x---1-1---|-3--3-5-3--x--3-5-3---|
|------------------------------------0-|-1--1-1-1--x--1-1-----|


                                      Outro
                                   &
  C                                    Bb
  E    +Q     E    +E  +E  E E         Q      +E   E    +E   Q   E
|-------------------------------||-||------------------------------|
|------------------------------o||-||o-----------------------------|
|-7b9==(7)r---7b9==(7)r(7)-5-2--||-||--5b7====(5)r-5b7==(5)r-5---3-|
|-------------------------------||-||------------------------------|
|------------------------------o||-||o-----------------------------|
|-------------------------------||-||------------------------------|
|
| E     E   E E    +E   E  E E         E    E  E   E    +E   E E E
|-------------------------------||-||------------------------------|
|-5-----5---5-5----(5)--5--5-5-o||-||o-3----3--3---3----(3)--3-3-3-|
|-5-----5---5-5----(5)--5--5-5--||-||--3----3--3---3----(3)--3-3-3-|
|-5-----5---5-5----(5)--5--5-5--||-||--3----3--3---3----(3)--3-3-3-|
|-3-----3---3-3----(3)--3--3-3-o||-||o-1----1--1---1----(1)--1-1-1-|
|-3-----3---3-3----(3)--3--3-3--||-||------------------------------|
|
| E     E   E E     E   E  E E         E    E  E   E     E   E E E
|-------------------------------||-||------------------------------|
|------------------------------o||-||o-----------------------------|
|-------------------------------||-||------------------------------|
|-5-----5---7-5-----x---5--7----||-||--3----3--5---3-----x---5-3---|
|-3-----3---3-3-----x---3--3---o||-||o-1----1--1---1-----x---1-1---|
|----------------------------0--||-||----------------------------0-|


  F                    C                             F
  Q.     E +E  Q   E   E    +Q     E    +E   Q   E   Q.     E +E  Q   E    3x
|--------------------|-----------------------------|-----------------------||
|--------------------|-----------------------------|----------------------o||
|-2------2-(2)-3---5-|-5b9==(5)r---7b9==(7)r-7---5s|=2------2-(2)-3---5----||
|--------------------|-----------------------------|-----------------------||
|--------------------|-----------------------------|----------------------o||
|--------------------|-----------------------------|-----------------------||
|
| E  E E E +E  E E E   E     E   E E    +E   E E E   E  E E E +E  E E E    3x
|-1--1-1-1-(1)-1-1-1-|-----------------------------|-1--1-1-1-(1)-3-3-1----||
|-1--1-1-1-(1)-1-1-1-|-5-----5---5-5----(5)--5-5-5-|-1--1-1-1-(1)-3-3-1---o||
|-2--2-2-2-(2)-2-2-2-|-5-----5---5-5----(5)--5-5-5-|-2--2-2-2-(2)-3-3-2----||
|-3--3-3-3-(3)-3-3-3-|-5-----5---5-5----(5)--5-5-5-|-3--3-3-3-(3)-5-5-3----||
|-3--3-3-3-(3)-3-3-3-|-3-----3---3-3----(3)--3-3-3-|-3--3-3-3-(3)-5-5-3---o||
|-1--1-1-1-(1)-1-1-1-|-3-----3---3-3----(3)--3-3-3-|-1--1-1-1-(1)-3-3-1----||
|
| E  E E E  E  E E E   E     E   E E     E   E E E   E  E E E  E  Q   E    3x
|--------------------|-----------------------------|-----------------------||
|--------------------|-----------------------------|----------------------o||
|--------------------|-----------------------------|-----------------------||
|--------------------|-5-----5---7-5-----x---5-7---|-----------------------||
|-3--3-5-3--x--3-5-3-|-3-----3---3-3-----x---3-3---|-3--3-3-3--x--5---7---o||
|-1--1-1-1--x--1-1---|---------------------------0-|-1--1-1-1--x--3---5----||


    Bb                                  F
    E    +E   E    +E    E    +Q    E   E E +Q     E  Q   E
||------------------------------------|---------------------|
||o-----------------------------------|---------------------|
||--5b7==(5)r-5b7==(5)r--5pb7r(5)---3-|-2-------------3---5-|
||------------------------------------|---3-(3)-------------|
||o-----------------------------------|---------------------|
||------------------------------------|---------------------|
|
|   E     E   E     E   +E     E  E E   E E  E  E +E  E E E
||------------------------------------|-1-1--1--1-(1)-1-1-1-|
||o-3-----3---3-----3---(3)----3--3-3-|-1-1--1--1-(1)-1-1-1-|
||--3-----3---3-----3---(3)----3--3-3-|-2-2--2--2-(2)-2-2-2-|
||--3-----3---3-----3---(3)----3--3-3-|-3-3--3--3-(3)-3-3-3-|
||o-1-----1---1-----1---(1)----1--1-1-|-3-3--3--3-(3)-3-3-3-|
||------------------------------------|-1-1--1--1-(1)-1-1-1-|
|
|   E     E   E     E    E     E  E E   E E  E  E  E  E E E
||------------------------------------|---------------------|
||o-----------------------------------|---------------------|
||------------------------------------|---------------------|
||--3-----3---5-----3----x-----5--3---|---------------------|
||o-1-----1---1-----1----x-----1--1---|-3-3--5--3--x--3-5-3-|
||----------------------------------0-|-1-1--1--1--x--1-1---|


  C                             F           Gm  F
  E    +Q     E    +E   Q   E   E E E E  E  E E E   4x
|-----------------------------|---------------------||
|-----------------------------|--------------------o||
|-5b9==(5)r---7b9==(7)r-7---5-|---------------3-5---||
|-----------------------------|-------3--5--7-------||
|-----------------------------|-3-5-7--------------o||
|-----------------------------|---------------------||
|
| E     E   E E    +E   E E E   E E E E +E  E E E   4x
|-----------------------------|-1-1-1-1-(1)-3-3-1---||
|-5-----5---5-5----(5)--5-5-5-|-1-1-1-1-(1)-3-3-1--o||
|-5-----5---5-5----(5)--5-5-5-|-2-2-2-2-(2)-3-3-2---||
|-5-----5---5-5----(5)--5-5-5-|-3-3-3-3-(3)-5-5-3---||
|-3-----3---3-3----(3)--3-3-3-|-3-3-3-3-(3)-5-5-3--o||
|-3-----3---3-3----(3)--3-3-3-|-1-1-1-1-(1)-3-3-1---||
|
| E     E   E E     E   E E E   E E E E  E  Q   E   4x
|-----------------------------|---------------------||
|-----------------------------|--------------------o||
|-----------------------------|---------------------||
|-5-----5---7-5-----x---5-7---|---------------------||
|-3-----3---3-3-----x---3-3---|-3-3-3-3--x--5---7--o||
|---------------------------0-|-1-1-1-1--x--3---5---||


Duration Legend
---------------
W - whole; H - half; Q - quarter; E - 8th; S - 16th; T - 32nd; X - 64th; a - acciaccatura
+ - note tied to previous; . - note dotted; .. - note double dotted
Uncapitalized letters represent notes that are staccato (1/2 duration)
Irregular groupings are notated above the duration line
Duration letters will always appear directly above the note/fret number it represents the
duration for.  Duration letters with no fret number below them represent rests.  Multi-
bar rests are notated in the form Wxn, where n is the number of bars to rest for.  Low
melody durations appear below the staff

Tablature Legend
----------------
 h   - hammer-on
 p   - pull-off
 b   - bend
 pb  - pre-bend
 r   - bend release (if no number after the r, then release immediately)
 /\  - slide into or out of (from/to "nowhere")
 s   - legato slide
 S   - shift slide
  - natural harmonic
[n]  - artificial harmonic
n(n) - tapped harmonic
 ~   - vibrato
 tr  - trill
 T   - tap
 TP  - trem. picking
 PM  - palm muting
\n/  - tremolo bar dip; n = amount to dip
 \n  - tremolo bar down
 n/  - tremolo bar up
/n\  - tremolo bar inverted dip
 =   - hold bend; also acts as connecting device for hammers/pulls
 <>  - volume swell (louder/softer)
 x   - on rhythm slash represents muted slash
 o   - on rhythm slash represents single note slash

Misc Legend
-----------
 |  - bar
||  - double bar
||o - repeat start
o|| - repeat end
*|  - double bar (ending)
 :  - bar (freetime)
 $  - Segno
 &  - Coda
Tempo markers -  = BPM(8/16=s8/s16), where s8 = swing 8ths, s16 = swing 16ths




Goodbye love
Didn't know what time it was the lights were low oh how
I leaned back on my radio oh oh
Some cat was layin down some rock n roll lotta soul, he said
Then the loud sound did seem to fade a ade
Came back like a slow voice on a wave of phase ha hase
That werent no D. J. That was hazy cosmic jive

There's a starman waiting in the sky
Hed like to come and meet us
But he thinks he'd blow our minds
There's a starman waiting in the sky
Hes told us not to blow it
Cause he knows it's all worthwhile
He told me:
Let the children lose it
Let the children use it
Let all the children boogie

I had to phone someone so I picked on you ho ho
Hey, that's far out so you heard him too! O o
Switch on the tv we may pick him up on channel two
Look out your window I can see his light a ight
If we can sparkle he may land tonight a ight
Don't tell your poppa or hell get us locked up in fright

There's a starman waiting in the sky
Hed like to come and meet us
But he thinks he'd blow our minds
There's a starman waiting in the sky
Hes told us not to blow it
Cause he knows it's all worthwhile
He told me:
Let the children lose it
Let the children use it
Let all the children boogie

Starman waiting in the sky
Hed like to come and meet us
But he thinks he'd blow our minds
There's a starman waiting in the sky
Hes told us not to blow it
Cause he knows it's all worthwhile
He told me:
Let the children lose it
Let the children use it
Let all the children boogie

La, la, la, la, la, la, la, la
La, la, la, la, la, la, la, la
La, la, la, la, la, la, la, la
La, la, la, la, la, la, la, la
La, la, la, la, la, la, la, la
La, la, la, la, la, la, la, la
La, la, la, la, la, la, la, la
La, la, la, la, la, la, la, la
La, la, la, la, la, la, la, la
La, la, la, la, la, la, la, la
La, la, la, la, la, la, la, la
La, la, la, la, la, la, la, la

            
            
Suggest correction
Creating personal tab
Creating personal tab
You can edit any tab online and save it as your Personal.

You can edit, replace or remove any tab part or add personal notes – all changes will be seen only by you.

Personal tabs can be accessed anytime from any device, even offline.
Learn more »
Give kudos to tab author, rate the tab!
1 2 3 4 5
comments
print report bad tab
guest
You may want to rate the tab now too:
select rating
Wanna post a correction for this tab? Suggest correction