Oops, an error
Loading. Please wait.

Station To Station Chords

version 1
version 1

Whole song

Interactive

15,096 views 15 this week
1 commentread comment
1 2 3 4 5
x 5
add to favorites
launch autoscroll
font size
0
reset
transpose
0
reset
display chords
guitar tuner
Autoscroll
slow
fast
+/-
esc
set tempo
stop
Help us to improve Ultimate-Guitar.com Take our survey!
×
David Bowie
"Station To Station"
from: Station To Station
transcribed by Romulus Rave

This is just the way I play it .... which is the right way

 [riff 1]
e|----------------------------------------------------------------|
B|----------------------------------------------------------------|
G|-------------------------------2-5-2------4-7-4-----------------|
D|--5/7-7--4/5\4--7--4/5\4--7-----------3-----------5-------7-----|
A|--5/7-7--5/6\5--7--5/6\5--7-------------3------------5----------|:repeat
E|--3/5-5---------5---------5-3---------------------------------3-|

[riff 2]
         Cm        G                F#                D
"The return of the Thin White Duke, throwing darts in lovers eyes"

return to riff 1 "Here am I .... Station to station" return to riff 2

[riff 3]
 G                                                          Bm
"Once there were mountains on mountains and once there were sunbirds to soar with
     D      A                 G
 and once I would never be down"
     D                               G
...."wonder who wonder who wonder when"

[riff 4]
 G               F#m     F           C D  E A E F#m :repeat
"Have you sought fortune evasive and shy
 Drink to the men who protect you and I
 Drink drink drain your glass
 Raise your glass high

[riff 5]
      A                                    Bm                           G
"It's not the side effects of the cocaine, I'm thinking that it must be love
          Bm            C
 It's too late to be grateful
          D               G
 It's too late to be late again
          Bm       C
 It's too late to hateful
      G                   A
 The European cannon is here"

[riff 6]
e|-------------------------------|
B|-------------------------------|
G|-----7-6-7-6---9---7-6-7-6-----|
D|---7---------7---7---------7---|
A|-0---------------------------0-|
E|-------------------------------|
Suggest correction
comments
print report bad tab
1 comment total.
0 reply
barracuda6659 10 Sep 27, 2004 12:00 AM

The end of the riff can be played more easily by holding an A#/Bb (012330) and then sliding that chord up one step into a C (034550) and playing it as follows:

A#/Bb C C
e----------------------------
B----1----------3--------3---
G--2---2------4---4------4-4-
D--------3----------5------5-
A----------3----------5------
E----------------------------

guest
You may want to rate the tab now too:
select rating
Wanna post a correction for this tab? Suggest correction