Oops, an error
Loading. Please wait.

Stay Bass

version 1
version 1

Whole song

Interactive

466 views 3 this week
no commentswrite comment
1 2 3 4 5
3 more votes to show rating
add to favorites
launch autoscroll
font size
0
reset
guitar tuner
backing track
0:00
0:00
Autoscroll
slow
fast
+/-
esc
set tempo
stop
Author
Difficulty
intermediate
Artist : David Bowie
Album : Station To Station
Song : Stay

[Intro] (0:09)
 4/4
G|----------------|----------------|----------------|----------------|
D|----------------|----------------|----------------|----------------|
A|----------------|----------------|----------------|----------------| (x3)
E|5r-------------x|5r-------------x|3r-------------x|3r-------------x|

G|----------------|------------5-2-|----------------|----------------|
D|------------5h7-|----------------|----------------|----------------|
A|----------------|----------------|----------------|----------------| (x3)
E|5-5--5--5r------|5-5--5--5r------|3r-------------x|3r--------------|

[Main Riff]
G|----------------|----------------|----------------|----------------|
D|----------------|----------------|----------------|----------------|
A|----------------|----------------|----------------|----------------| (x2)
E|5-5--5--5r-----x|5-5--5--5r------|3-3--3--3r-----x|3-3--3--3r----34|

[Verse]
G|----------------|----------------|----------------|----------------|
D|----------------|----------------|----------------|----------------|
A|----------------|----------------|----------------|----------------|-|
E|3-3--3--3r------|3-3--3--3r----4-|5-5--5--5r------|5-5--5--5r------| |
                                                        3/4            | (x2)
    G|----------------|----------------|----------------|------------| |
    D|----------------|----------------|----------------|------------|-|
    A|3-3--3--3r-----x|3-3--3----------|----------------|------------|
    E|----------------|--------x03---0-|1r--------------|------------|

[Chorus]
G|----------------|----------------|----------------|----------------|
D|----------------|----------------|----------------|----------------|
A|----------------|----------------|----------------|--------------5-|
E|5r------05r----0|5r-----05---3---|1r-----x1r-----x|1r-----x1r-x8---|
              P                                 P
G|------------7h9-|----------------|------------7h9-|----------------|
D|----------------|----------------|----------------|----------------|
A|7-7--7--7-------|7-7--7-x5/7-----|7-7--7--7-------|7-7--7-x5/7-----|
E|----------------|-----------0----|----------------|------------0---|

G|----------------|----------------|----------------|----------------|
D|-------x3r------|-------x3-2-3-5-|--------5r------|-------x5-4-5-7-|
A|----------------|----------------|-------5-------5|----------------|
E|1r-------------x|1r--------------|3r--------------|3r--------------|

[Main Riff]
G|----------------|----------------|----------------|----------------|
D|----------------|----------------|----------------|----------------|
A|----------------|----------------|----------------|----------------| (x4)
E|5-5--5--5r------|5-5--5--5-------|3-3--3--3r------|3-3--3--3r----34|

[Verse]
G|----------------|----------------|----------------|----------------|
D|----------------|----------------|----------------|----------------|
A|----------------|----------------|----------------|----------------|
E|3-3--3--3r------|3-3--3--3r----4-|5-5--5--5r------|5-5--5--5r---535|
                                                        3/4
    G|----------------|----------------|----------------|------------|
    D|----------------|----------------|----------------|------------|
    A|3-3--3--3r----x-|3-3--3----------|----------------|------------|
    E|----------------|--------x03---0-|1r--------------|------------|

[Chorus]
G|----------------|----------------|----------------|----------------|
D|----------------|----------------|----------------|----------------|
A|----------------|----------------|----------------|--------------5-|
E|5r------05r----0|5r-----05---3---|1r-----x1r-----x|1r-----x1r-x8---|
              P                                 P
G|------------7h9-|----------------|------------7h9-|----------------|
D|----------------|----------------|----------------|----------------|
A|7-7--7--7-------|7-7--7-x5/7-----|7-7--7--7-------|7-7--7-x5/7-----|
E|----------------|------------0---|----------------|------------0---|

G|----------------|----------------|----------------|----------------|
D|-------x3r------|-------x3-2-3-5-|-------x5r------|-------x5-4-5-7-|
A|----------------|----------------|----------------|----------------|
E|1r-------------x|1r--------------|3r-------------x|3r--------------|

G|----------------|----------------|----------------|----------------|
D|----------------|----------7---5-|----------------|----------------|
A|----------------|----------------|----------------|--------------5-|
E|5-5r----05r----0|5r-----05---3---|1r-----x1r-----x|1r-----x1r------|
              P                                 P
G|------------7h9-|----------------|------------7h9-|----------------|
D|----------------|----------------|----------------|----------------|
A|7-7--7--7-------|7-7--7-x5/7-----|7-7--7--7-------|7-7--7-x5/7-----|
E|----------------|------------0---|----------------|------------0---|

G|----------------|----------------|----------------|----------------|
D|-------x3r------|-------x3-2-3-5-|--------5r------|-------x5-4-5-7-|
A|----------------|----------------|-------5-------5|----------------|
E|1r-------------x|1r--------------|3r--------------|3r--------------|

[Bridge]
G|----------------|----------------|----------------|----------------|
D|----------------|----------------|----------------|----------------|
A|----------------|----------------|----------------|----------------|
E|----------------|----------------|----------------|----------------|

G|----------------|----------------|----------------|----------------|
D|----------------|----------------|----------------|----------------|
A|----------------|----------------|----------------|----------------| (x3)
E|5r-------------x|5r-------------x|3r-------------x|3r-------------x|

[Outro]
G(6)--------------|----------------|----------------|----------------|
D(7)--------------(7)--------------(5)--------------(5)--------------|
A|----------------|----------------|----------------|----------------| repeat & fade out
E|5-5--5--5r------|5-5--5--5r------|3-3--3--3r------|3-3--3--3r----34|

Use these fills at the end of the riffs (last mesure change)
You can improvise if you want (even hghly recommended) !

G|--------------------3-4-5-------|
D|--------------------------------|
A|--------------------------------|
E|3---3----3----3-------------3---|

G|-----------------|
D|-----------------|
A|-----------------|
E|3-3--3--3--2-3-4-|

G|------------4-5-|
D|5-5-6-6-7-7-----|
A|----------------|
E|----------------|

G|----------------|     
D|----------5-4-5-|
A|----------------|
E|3-3--3--3-------|


************************************

| x   Dead note
| h   Hammer-on
| r   Release
| /   Slide up
| \   Slide down
| P   Pop
|(n)  Notes eventually played trought the repeats 
      (instead of the normal notes)

************************************
Suggest correction
Give kudos to tab author, rate the tab!
1 2 3 4 5
comments
print report bad tab
guest
You may want to rate the tab now too:
select rating
Wanna post a correction for this tab? Suggest correction