Oops, an error
Loading. Please wait.

Stay Bass Tab

version 1
version 1

Whole song

Interactive

118 views 6 this week
no commentswrite comment
1 2 3 4 5
3 more votes to show rating
add to favorites
launch autoscroll
font size
0
reset
guitar tuner
Autoscroll
slow
fast
+/-
esc
set tempo
stop
Help us to improve Ultimate-Guitar.com Take our survey!
×
Author
Difficulty
intermediate
Artist : David Bowie
Album : Station To Station
Song : Stay



[Intro pt1] x3
0:09
4/4
G|-------------------|---------------------|--------------------|------------------|
D|-------------------|---------------------|--------------------|------------------|
A|-------------------|---------------------|--------------------|------------------|
E|5r-----------------|5r-----------------x-|3r------------------|3r----------------|


[Intro pt2] x3
4/4
G|-------------------|----------------5-2--|--------------------|------------------|
D|--------------5h7--|---------------------|--------------------|------------------|
A|-------------------|---------------------|--------------------|------------------|
E|5---5--5--5r-------|5---5--5--5r---------|3r------------------|3r--------------x-|


[Main Riff] x2
4/4
G|-------------------|---------------------|--------------------|------------------|
D|-------------------|---------------------|--------------------|------------------|
A|-------------------|---------------------|--------------------|------------------|
E|5---5--5--5r-------|5---5--5--5r---------|3---3--3--3r--------|3---3--3--3r--3-4-|


[Verse] x2
4/4
G|-------------------|--------------------|--------------------|-------------------|
D|-------------------|--------------------|--------------------|-------------------|
A|-------------------|--------------------|--------------------|-------------------|
E|3--3---3---3r------|3--3---3---3r-----4-|5--5---5---5r-------|5--5---5---5r------|
                                                               3/4
G|-------------------|--------------------|--------------------|---------------|
D|-------------------|--------------------|--------------------|---------------|
A|3--3---3---3r----x-|3--3---3------------|--------------------|---------------|
E|-------------------|-----------0-x-3--0-|1r------------------|---------------|


[Chorus] x1
4/4
G|-------------------|--------------------|--------------------|-------------------|
D|-------------------|--------------------|--------------------|-------------------|
A|-------------------|--------------------|--------------------|----------------5--|
E|5r------0-5r-----0-|5r------0-5----3----|1-------x-1-------x-|1-------x-1--1-----|

G|-------------P7h9--|--------------------|-------------P7h9--|--------------------|
D|-------------------|--------------------|-------------------|--------------------|
A|7--7---7---7-------|7--7---7--x-5/7---x-|7--7---7---7-------|7--7--7--x-5/7------|
E|-------------------|----------------0---|-------------------|---------------0--x-|

G|-------------------|--------------------|-------------------|--------------------|
D|-------x-3---------|-------x-3--2--3--5-|-------x-5---------|-------x-5--4--5--7-|
A|-------------------|--------------------|-------------------|--------------------|
E|1----------------x-|1-------------------|3----------------x-|3-------------------|


[Main Riff] x4
4/4
G|-------------------|---------------------|--------------------|------------------|
D|-------------------|---------------------|--------------------|------------------|
A|-------------------|---------------------|--------------------|------------------|
E|5---5--5--5r-------|5---5--5--5r---------|3---3--3--3r--------|3---3--3--3r--3-4-|


[Verse] x1
4/4
G|-------------------|--------------------|--------------------|-------------------|
D|-------------------|--------------------|--------------------|-------------------|
A|-------------------|--------------------|--------------------|-------------------|
E|3--3---3---3r------|3--3---3---3r-----4-|5--5---5---5r-------|5--5---5---5r---535|
                                                               3/4
G|-------------------|--------------------|--------------------|---------------|
D|-------------------|--------------------|--------------------|---------------|
A|3--3---3---3r----x-|3--3---3------------|--------------------|---------------|
E|-------------------|-----------0-x-3--0-|1r------------------|---------------|


[Chorus] x1
4/4
G|-------------------|--------------------|--------------------|-------------------|
D|-------------------|--------------------|--------------------|-------------------|
A|-------------------|--------------------|--------------------|----------------5--|
E|5r------0-5r-----0-|5r------0-5----3----|1-------x-1-------x-|1-------x-1--1-----|

G|-------------P7h9--|--------------------|-------------P7h9--|--------------------|
D|-------------------|--------------------|-------------------|--------------------|
A|7--7---7---7-------|7--7---7--x-5/7---x-|7--7---7---7-------|7--7--7--x-5/7------|
E|-------------------|----------------0---|-------------------|---------------0--x-|

G|-------------------|--------------------|-------------------|--------------------|
D|-------x-3---------|-------x-3--2--3--5-|-------x-5---------|-------x-5--4--5--7-|
A|-------------------|--------------------|-------------------|--------------------|
E|1----------------x-|1-------------------|3----------------x-|3-------------------|


[Chorus 2] x1
4/4
G|-------------------|--------------------|--------------------|-------------------|
D|-------------------|-------------7----5-|--------------------|-------------------|
A|-------------------|--------------------|--------------------|----------------5--|
E|5-5r----0-5r-----0-|5r------0-5----3----|1-------x-1-------x-|1-------x-1--1-----|

G|-------------P7h9--|--------------------|-------------P7h9--|--------------------|
D|-------------------|--------------------|-------------------|--------------------|
A|7--7---7---7-------|7--7---7--x-5/7---x-|7--7---7---7-------|7--7--7--x-5/7------|
E|-------------------|----------------0---|-------------------|---------------0--x-|

G|-------------------|--------------------|-------------------|--------------------|
D|-------x-3---------|-------x-3--2--3--5-|-------x-5---------|-------x-5--4--5--7-|
A|-------------------|--------------------|-------------------|--------------------|
E|1----------------x-|1-------------------|3----------------x-|3-------------------|


[Interlude]: No bass

[Intro pt1] x3
4/4
G|-------------------|---------------------|--------------------|------------------|
D|-------------------|---------------------|--------------------|------------------|
A|-------------------|---------------------|--------------------|------------------|
E|5r-----------------|5r-----------------x-|3r------------------|3r----------------|


[Outro]
4/4
G|-------------------|---------------------|--------------------|------------------|
D|-------------------|---------------------|--------------------|------------------|
A|-------------------|---------------------|--------------------|------------------|
E|5---5--5--5r-------|5---5--5--5r---------|3---3--3--3r--------|3---3--3--3r--3-4-|

Play the Main Riff until the end with these bridges at the end of the riffs
(you can improvise if you want !)

G|----------2-3-4----|     
D|-------------------|
A|-------------------|
E|3-3--3--3-------3--|

G|-------------------|
D|-------------------|
A|-------------------|
E|3-3--3--3--2--3--4-|

G|---------------4-5-|
D|5-5--6-6--7-7------|
A|-------------------|
E|-------------------|

G|-------------------|     
D|-----------5-4-5---|
A|-------------------|
E|3-3--3--3----------|

[Fade Out]

************************************

| x   Dead note
| h   Hammer-on
| r   Release
| /   Slide up
| \   Slide down
| P   Pop

************************************
Suggest correction
Give kudos to tab author, rate the tab!
1 2 3 4 5
comments
print report bad tab
guest
You may want to rate the tab now too:
select rating
Wanna post a correction for this tab? Suggest correction