Oops, an error
Loading. Please wait.

Suffragette City Bass Tab

version 1
version 1

Whole song

Interactive

21,304 views 78 this week
3 commentsread comments
1 2 3 4 5
excellent!
x 9
add to favorites
launch autoscroll
font size
0
reset
guitar tuner
Tab Pro tools
  • play this tab
  • loop segment
  • change instrument
  • show fretboard
  • metronome
×
Best way to learn
"Suffragette City"
Autoscroll
slow
fast
+/-
esc
set tempo
stop
Difficulty
novice
Intro:
G|-----------------------------------|
D|--7-----7-----7-----7-----7---7----|
A|-----------------------------------|
E|-----------------------------------|
    1   2   3   4   1   2   3   4   

Link of Intro:
    A
G|-----------------------------------|
D|:-7-7-4-4-----4-7---7-4-4-----4-4-:|
A|:---------7-7-------------7-7-----:|
E|-----------------------------------|
    1   2   3   4   1   2   3   4 

Verse/Solo:
    A		   F		  G   A		     F         G
G|-------------------------------------------------------------------|
D|--7-7-4-4-------3---3-3-3-3-3-5-5-7-7-4-4-7-7-7-3---3---3-5-5---5--|
A|----------7-7-----------------------------------------3-------5----|
E|-------------------------------------------------------------------|
    1   2   3   4   1   2   3   4   1   2   3   4   1   2   3   4

    A		   B		      D		       F       G
G|-------------------------------------------------------------------|
D|--7-7-4-4-----7-----------------------------------3-3---3-5-5---5--|
A|----------7-7-----------------4-5-5-5-3-3-----3-5-----3-------5----|
E|----------------7-7-7-7-7-7-7-------------5------------------------|
    1   2   3   4   1   2   3   4   1   2   3   4   1   2   3   4

Chorus:
    A		     D		      F       C       G
G|-------------------------------------------------------------------|
D|:-7-7-7-7-7-7-7-7-----------------3-3---3--------05-5-5-5-5-5-5-5-:|
A|:-----------------5-5-5-5-5-5-5-8---------3-3---3-----------------:|
E|-------------------------------------------------------------------|
    1   2   3   4   1   2   3   4   1   2   3   4   1   2   3   4

Outro:
    A
G|---------------------------------------------------|
D|--7-----7-----7-----7-----7---7---7-7-4-4-----4-7--|
A|------------------------------------------7-7------|
E|---------------------------------------------------|
    1   2   3   4   1   2   3   4   1   2   3   4

    F		     A
G|-----------------------------------|
D|:-3-3-3-3-3-3-3-5-7-7-7-7-7-7-7-3-:|(repeat 7 times)
A|:---------------------------------:|
E|-----------------------------------|
    1   2   3   4   1   2   3   4

    F		     E
G|-------------------------------------------------------------------|
D|--3-3-3-3-3-3-3-3-2-2-2-2-2-2-2-2-2-2-2-2-2-2-2-2-2-2-2-2-2-2-2-2--|
A|-------------------------------------------------------------------|
E|-------------------------------------------------------------------|
    1   2   3   4   1   2   3   4   1   2   3   4   1   2   3   4

    A
G|-----------------------------------|
D|--7-(& off)------------------------|
A|-----------------------------------|
E|-----------------------------------|
    1   2   3   4   1   2   3   4
       Errr, Wham bam thank you mam

    A               F             A
G|-----------------------------------|
D|:-7-7-7-7-7-7-7-3-3-3-3-3-3-3-3-5-:|(repeat 7 times)
A|:---------------------------------:|
E|-----------------------------------|
    1   2   3   4   1   2   3   4

    A               F
G|-----------------------------------|
D|--7-7-7-7-7-7-7-3-3-3-3-3-3-3-3-3--|
A|-----------------------------------|
E|-----------------------------------|
    1   2   3   4   1   2   3   4

    E						       A
G|-----------------------------------------------------|
D|--2-2-2-2-2-2-2-2-2-2-2-2-2-2-2-2-2-2-2-2-2-2-2-2-7--|(& that’s your lot)
A|-----------------------------------------------------|
E|-----------------------------------------------------|
    1   2   3   4   1   2   3   4   1   2   3   4   1

Order of tune:
Intro
Link of Intro
Verse (x2)
Chorus (x2)
Intro
Link of Intro
Verse (x1)
Chorus (x2)
Intro
Solo (same riff as Verse (x1))
Chorus (x2)
Outro
 
comments
print report bad tab
3 comments total.
0 reply
TheNewCancer92 wrote on December 25 2008, 05:43 pm

It seems to be close. But a few things just don't seem right. So I rated this song a four. It's about time there was a bass tab put up for this song.

0 reply
rkwakman wrote on March 10 2010, 09:31 am

i like the tab only i think that the chorus is something like this:
G|:---------------------------------|
D|:-7-7-4-4----4-7------------------|
A|:---------7-7-------5-5-2-2----2-5|
E|:--------------------------5-5----|

then that other part
G|:---------------------------------|
D|:3-3---3--------05-5-5-5-5-5-5-5-:|
A|:--------3-3---3-----------------:|
E|:--------------------------------:|

I think the rest is great

0 reply
rkwakman wrote on March 10 2010, 01:03 pm

i have another correction:)

G|---------------------------------------|
D|:-3-3-3-3-3-3-3-7-7-4-4-----4-7-------:|(repeat 7 times)
A|:-----------------------7-7-----------:|
E|---------------------------------------|
1 2 3 4 1 2 3 4

play this riff again after Wham bam thank you mam

I want to post or [tab]
guest
You may want to rate the tab now too:
select rating
Please do not post tabs as comments. Select "correction" instead!