Oops, an error
Loading. Please wait.

Suffragette City Tab

version 1
version 1

Whole song

Interactive

11,169 views 3 this week
no commentswrite comment
1 2 3 4 5
x 4
add to favorites
launch autoscroll
font size
0
reset
how to read this tab
guitar tuner
backing track
0:00
0:00
Autoscroll
slow
fast
+/-
esc
set tempo
stop
Author
Difficulty
intermediate
Not too sure on the solo so i didnt put it up but im pretty sure on the rest..

Intro..
e|-1-5-5-5-5-5-1--------------------------------|
B|-1-5-5-5-5-5-1--------------------------------|
G|-2-6-6-6-6-6-2--------------------------------|
D|-3-7-7-7-7-7-3--------------------------------|
A|-3-7-7-7-7-7-3-7-7-9-7-9-7-7-9-7-9-7-7-9-7-9--|
E|-1-5-5-5-5-5-1-5-5-5-5-5-5-5-5-5-5-5-5-5-5-5--|

Verse..
e|-------------1-1-1-3-------------1-1-1-3--|
B|-------------1-1-1-3-------------1-1-1-3--|
G|-------------2-2-2-4-------------2-2-2-4--|
D|-------------3-3-3-5-------------3-3-3-5--|
A|-7-7-9-7-7-9-3-3-3-5-7-7-9-7-7-9-3-3-3-5--|
E|-5-5-5-5-5-5-1-1-1-3-5-5-5-5-5-5-1-1-1-3--|


Pre Chorus..
e|---------------------------------------1-1-1-3-3-3--|
B|---------------------------------------1-1-1-3-3-3--|
G|---------------------------------------2-2-2-4-4-4--|
D|---------------------------7-7-9-7-7-9-3-3-3-5-5-5--|
A|-7-7-9-7-7-9-9-9-11-9-9-11-5-5-5-5-5-5-3-3-3-5-5-5--|
E|-5-5-5-5-5-5-7-7--7-7-7--7-------------1-1-1-3-3-3--|

Chorus..(not to sure)
e|-7-7-7-7-5-5-5-5-1-3-5----------------------------------------------------------------|
B|-7-7-7-7-7-7-7-7-1-3-5----------------------------------------------------------------|
G|-8-8-8-8-7-7-7-7-2-4-6----------------------------------------------------------------|
D|-9-9-9-9-7-7-7-7-3-5-7----------------------------------------------------------------|
A|-9-9-9-9-5-5-5-5-3-5-7----------------------------------------------------------------|
E|-7-7-7-7-5-5-5-5-1-3-5----------------------------------------------------------------|

then you play the intro again, then verse then work out the order yourself.
Suggest correction
comments
print report bad tab
guest
You may want to rate the tab now too:
select rating
Wanna post a correction for this tab? Suggest correction