Oops, an error
Loading. Please wait.

Underground bass

61 views 1 this week
no commentswrite comment
1 2 3 4 5
3 more votes to show rating
add to favorites
×
Save as Personal and add changes to this tab that will be seen only by you. Learn more ›
×
You can save this tab as Personal to edit and correct it or add notes. All changes will be seen only by you. Learn more »
launch autoscroll
font size
0
reset
guitar tuner
edit
Autoscroll
slow
fast
+/-
esc
set tempo
stop
Author
Difficulty
[Intro]
G|------------------------------------------------------------|
D|------------------------------------------------------------|
A|-----0-1-2--3-------5--3---3---3-3-3--2---3---5--5-5--7--5--|
E|--3------------1---------5----------------------------------|

G|---------------------------------------------------------------------|
D|---------------------------------------------------------------------|
A|-----0-1-2--3-------5--3---3---3-3-3--2---3---5--5-5-7-5-5-3--3-3----|
E|--3------------1---------5----------------------------------------3--|

[Verse]
G|-------------------------------------------------------------|
D|-------------------------------------------------------------|
A|----------------3---------2h3---------------3---------2h3----|
E|--3---3-3-3--2------1---1-----3---3-3-3--2------1---1--------|

G|-------------------------------------------------------------|
D|-------------------------------------------------------------|
A|--------------------------2h3-3----------2h3---------3h6-----|
E|--3---3-3-3--2--1--1-1-1-----------1---1-----3---3-6-----3---|

G|-------------------------------------------------------------|
D|-------------------------------------------------------------|
A|----------------3---------2h3---------------3---------2h3----|
E|--3---3-3-3--2------1---1-----3---3-3-3--2------1---1--------|

G|-------------------------------------------------------------|
D|---------------------------------------------------------2---|
A|--------------------------2h3-3--3--3--3--3--3--3--3-3-3-----|
E|--3---3-3-3--2--1--1-1-1-------------------------------------|

[Pre-Chorus]
G|------------------------------------------------------------|
D|----------9-7-5-0---0-0---------------9-7-5-0---0-0---------|
A|------5h7-------------------------5h7-----------------------|
E|--5---------------------2--3--5---------------------2--3----|

G|----------------------------------------------------------------------------------------|
D|----------9-7-5-0---0-0---------------9-7-5-0---0-0-------------------------------------|
A|------5h7-------------------------5h7---------------------------------------------------|
E|--5---------------------2--3--5---------------------2--3---3-3-3---3-3-3---3-3-3--3--3--|

[Chorus]
G|------------------------------------------------------------------------------------------|
G|------------------------------------------------------------------------------------------|
A|----------5---5--5-5-3---3-------9--7-7-9-9-5--------3-3-3---3--3-3-1--1--1-1-3---3-3-3---|
E|--0---0----------------------3------------=----1---1--------------------------------------|

G|-----------------------------------------------------------------------------------|
D|-----------------------------------------------------------------------------------|
A|-----------------------------------------1---1-1-1----1--1--1-1--1--1--1-1--1-1-3--|
E|--4---4-4-4----4--4--4-4--4--4--4-4--4-4-------------------------------------------|

G|------------------------------------|
D|----------------------0-0-1-1-2-2---|
A|------0-0-1-1-2-2-3-3---------------|
E|--1-1-------------------------------|

[Verse]
G|------------------------------------------------------------|
D|------------------------------------------------------------|
A|-----0-1-2--3-------5--3---3---3-3-3--2---3---5--5-5--7--5--|
E|--3------------1---------5----------------------------------|

G|-------------------------------------------------------------|
D|-------------------------------------------------------------|
A|----------------3---------2h3---------------3---------2h3----|
E|--3---3-3-3--2------1---1-----3---3-3-3--2------1---1--------|

G|-------------------------------------------------------------|
D|-------------------------------------------------------------|
A|----------------3---------2h3---------------3---------2h3----|
E|--3---3-3-3--2------1---1-----3---3-3-3--2------1---1--------|

G|-------------------------------------------------------------|
D|---------------------------------------------------------2---|
A|--------------------------2h3-3--3--3--3--3--3--3--3-3-3-----|
E|--3---3-3-3--2--1--1-1-1-------------------------------------|

[Pre-Chorus]
G|------------------------------------------------------------|
D|----------9-7-5-0---0-0---------------9-7-5-0---0-0---------|
A|------5h7-------------------------5h7-----------------------|
E|--5---------------------2--3--5---------------------2--3----|

G|----------------------------------------------------------------------------------------|
D|----------9-7-5-0---0-0---------------9-7-5-0---0-0-------------------------------------|
A|------5h7-------------------------5h7---------------------------------------------------|
E|--5---------------------2--3--5---------------------2--3---3-3-3---3-3-3---3-3-3--3--3--|

[Chorus]

G|-----------------------------------------------------------------------------------------------------------|
D|-----------------------------------------------------------------------------------------------------------|
A|---------0h1h2---2--2-2--------3h4h5---5--5-5-3---3-----9--7-7-9-9-5--------3-3-3---3--3-3-1--1--1-1-3--3-3|
E|--0---0-----------------0---0-------------------------3---------------1---1--------------------------------|

G|-----------------------------------------------------------------------------------|
D|-----------------------------------------------------------------------------------|
A|-----------------------------------------1---1-1-1----1--1--1-1--1--1--1-1--1-1-3--|
E|--4---4-4-4----4--4--4-4--4--4--4-4--4-4-------------------------------------------|

G|------------------------------------|
D|----------------------0-0-1-1-2-2---|
A|------0-0-1-1-2-2-3-3---------------|
E|--1-1-------------------------------|

[Bridge]
G|-----5------5---5--5-5---------|
D|-------------------------------|
A|--3----3--3---3--------3-------|
E|-------------------------------|

[Outro]
G|----5------7------8------9------10------10-------8---7---|
D|---------------------------------------------------------|
A|--3---3--5---5--6---6--7---7--8----8--8----8---6---6-----|
E|---------------------------------------------------------|

G|----5------7------8------9------10------10-------12------|
D|---------------------------------------------------------|
A|--3---3--5---5--6---6--7---7--8----8--8----8---10---11---|
E|---------------------------------------------------------|

G|----5------7------8------9------10------7-------7------5----|
D|------------------------------------------------------------|
A|--3---3--5---5--6---6--7---7--8----8--6---6---5---5--3---3--|
E|------------------------------------------------------------|

G|----5------7------8------9------10-------12--------13--------15------|
D|---------------------------------------------------------------------|
A|--3---3--5---5--6---6--7---7--8----8--10----10--11----11--13----13---|
E|---------------------------------------------------------------------|

G|-----5------5---5--5-5-----5------5---5--5-5-----5------5---5--5-5-----5------5---5--5-5-|
D|-----------------------------------------------------------------------------------------|
A|--3----3--3---3---------3----3--3---3---------3----3--3---3---------3----3--3---3--------|
E|-----------------------------------------------------------------------------------------|

G|---------------------10------10-------8---7---|
D|----9-7-5---9-7-5-----------------------------|
A|--3-------3--------8----8--8----8---6---6-----|
E|----------------------------------------------|

G|----5------7------8------9------10------10-------8---7---|
D|---------------------------------------------------------|
A|--3---3--5---5--6---6--7---7--8----8--8----8---6---6-----|
E|---------------------------------------------------------|

G|----5------7------8------9------10------10-------12------|
D|---------------------------------------------------------|
A|--3---3--5---5--6---6--7---7--8----8--8----8---10---11---|
E|---------------------------------------------------------|

G|----5------7------8------9------10------7-------7------5----|
D|------------------------------------------------------------|
A|--3---3--5---5--6---6--7---7--8----8--6---6---5---5--3---3--|
E|------------------------------------------------------------|

G|----5------7------8------9------10-------12--------13--------15------|
D|---------------------------------------------------------------------|
A|--3---3--5---5--6---6--7---7--8----8--10----10--11----11--13----13---|
E|---------------------------------------------------------------------|


************************************

| h   Hammer-on

************************************

            
            
Suggest correction
Creating personal tab
Creating personal tab
You can edit any tab online and save it as your Personal.

You can edit, replace or remove any tab part or add personal notes – all changes will be seen only by you.

Personal tabs can be accessed anytime from any device, even offline.
Learn more »
Give kudos to tab author, rate the tab!
1 2 3 4 5
comments
print report bad tab
guest
You may want to rate the tab now too:
select rating
Wanna post a correction for this tab? Suggest correction