Oops, an error
Loading. Please wait.

Watch That Man bass

34 views 3 this week
no commentswrite comment
1 2 3 4 5
2 more votes to show rating
add to favorites
×
Save as Personal and add changes to this tab that will be seen only by you. Learn more ›
×
You can save this tab as Personal to edit and correct it or add notes. All changes will be seen only by you. Learn more »
launch autoscroll
font size
0
reset
guitar tuner
edit
Autoscroll
slow
fast
+/-
esc
set tempo
stop
Bowie´s been a part of me almost all my life. His death encouraged me to write down these bass tabs
which I'll upload from time to time.
Tabbed by Leo Chiurco

[Intro]
G|-------------12------------------|---------------------------------|
D|-------------10------------------|---------------------------------|
A|10-------------------------------|-----7---7---7---7---7---7-------|
E|---------------------------------|---------------------------------|
   1 + + + 2 + + + 3 + + + 4 + + +   1 + + + 2 + + + 3 + + + 4 + + +

G|---------------------------------|---------------------------------|
D|-----------------4---4-----------|---------------------------------|
A|---------4---------------7-------|-----4-------5-------6---7/------|
E|-5---------------------------5---|---------------------------------|
   1 + + + 2 + + + 3 + + + 4 + + +   1 + + + 2 + + + 3 + + + 4 + + +

G|-------------12------------------|---------------------------------|
D|-------------10------------------|---------------------------------|
A|10-------------------------------|-----7---7---7---7---7---7-------|
E|---------------------------------|---------------------------------|
   1 + + + 2 + + + 3 + + + 4 + + +   1 + + + 2 + + + 3 + + + 4 + + +

G|---------------------------------|---------------------------------|
D|-------------------------4---7.--|-----7---4.--4.----------4---7---|
A|---------4h--5---7---7-----------|-----------------7---7-----------|
E|-5-------------------------------|---------------------------------|
   1 + + + 2 + + + 3 + + + 4 + + +   1 + + + 2 + + + 3 + + + 4 + + +

[Verse 1]
G|---------------------------------|---------------------------------|
D|-------------------------4---7.--|-----7---4.--4.------------------|
A|---------4h--5---7---7-----------|-----------------7---7---6---6---|
E|-5-------------------------------|---------------------------------|
   1 + + + 2 + + + 3 + + + 4 + + +   1 + + + 2 + + + 3 + + + 4 + + +

G|-------------------------4-------|---------------------------------|
D|---------4h--5---7---7-----------|---------4---4---5---5---6---7---|
A|-5---------------------------5.--|-----5---------------------------|
E|---------------------------------|---------------------------------|
   1 + + + 2 + + + 3 + + + 4 + + +   1 + + + 2 + + + 3 + + + 4 + + +

G|-------------------------6---9---|-----9---6---6-------------------|
D|---------6-------9---9-----------|-----------------9---9---6---6---|
A|-7-------------------------------|---------------------------------|
E|---------------------------------|---------------------------------|
   1 + + + 2 + + + 3 + + + 4 + + +   1 + + + 2 + + + 3 + + + 4 + + +

G|-------------------------6-------|---------------------------------|
D|---------6-------9---9-----------|---------------------------------|
A|-7---7-----------------------7/--|-9---9---9---9---9---9---9---9---|
E|---------------------------------|---------------------------------|
   1 + + + 2 + + + 3 + + + 4 + + +   1 + + + 2 + + + 3 + + + 4 + + +

G|---------------------------------|
D|---------------------------------|
A|-9---9---9---9---9---9---9\------|
E|---------------------------------|
   1 + + + 2 + + + 3 + + + 4 + + +

[Verse 2]
G|---------------------------------|---------------------------------|
D|-------------------------4-------|-------------------------4-------|
A|-------------4.------7-------7---|-------------4.------7-------4---|
E|-5-------------------------------|-5---5---------------------------|
   1 + + + 2 + + + 3 + + + 4 + + +   1 + + + 2 + + + 3 + + + 4 + + +

G|-------------------------4-------|---------------------------------|
D|-------------4-------7-------7---|---------------------------------|
A|-5---5---------------------------|-5---5-------5-------4---5---6---|
E|---------------------------------|---------------------------------|
   1 + + + 2 + + + 3 + + + 4 + + +   1 + + + 2 + + + 3 + + + 4 + + +

G|-------------------------6-------|---------------------------------|
D|-------------6.------9-----------|-------------6-------7---8---9---|
A|-7---7---------------------------|-7---7---------------------------|
E|---------------------------------|---------------------------------|
   1 + + + 2 + + + 3 + + + 4 + + +   1 + + + 2 + + + 3 + + + 4 + + +

G|---------------------------------|---------------------------------|
D|-------------6-------7---8---9---|---------------------------------|
A|-----7---------------------------|-9---9---9---9---9---9---9---9---|
E|---------------------------------|---------------------------------|
   1 + + + 2 + + + 3 + + + 4 + + +   1 + + + 2 + + + 3 + + + 4 + + +

G|---------------------------------|
D|---------------------------------|
A|-9---9---9---9---9---9---9-------|
E|---------------------------------|
   1 + + + 2 + + + 3 + + + 4 + + +

[Pre-Chorus 1]
G|---------------------------------|---------------------------------|
D|---------------------------------|-7---7-------7-----------7-------|
A|-5.------5-----------------------|---------------------7-----------|
E|---------------------------------|---------------------------------|
   1 + + + 2 + + + 3 + + + 4 + + +   1 + + + 2 + + + 3 + + + 4 + + +

G|---------------------------------|---------------------------------|
D|-------------1-------2---3---4---|-------------4-------5---6---7---|
A|-2-------------------------------|-5---5---------------------------|
E|---------------------------------|---------------------------------|
   1 + + + 2 + + + 3 + + + 4 + + +   1 + + + 2 + + + 3 + + + 4 + + +

G|---------7-----------------------|---------------------------------|
D|---------7-----------------------|-7---7-------7-----------7.------|
A|---------5---------------5\------|---------------------7-----------|
E|---------------------------------|---------------------------------|
   1 + + + 2 + + + 3 + + + 4 + + +   1 + + + 2 + + + 3 + + + 4 + + +

G|-------------------------6---9---|---------------------------------|
D|-------------6.------9-----------|-------------6.------7-----------|
A|-7-------------------------------|-7---7-------------------7\------|
E|---------------------------------|---------------------------------|
   1 + + + 2 + + + 3 + + + 4 + + +   1 + + + 2 + + + 3 + + + 4 + + +

[Chorus 1]
G|---------------------------------|---------------------------------|
D|---------------------------------|---------------------------------|
A|-------------2.------5--/7---7---|-------------2-----------5-------|
E|-3---3---------------------------|-3---3---------------------------|
   1 + + + 2 + + + 3 + + + 4 + + +   1 + + + 2 + + + 3 + + + 4 + + +

G|-------------------------2-------|---------------------------------|
D|-------------2-------5-----5-2---|---------------------------------|
A|-3-------------------------------|-3---3-------3-------2---3-------|
E|---------------------------------|---------------------------------|
   1 + + + 2 + + + 3 + + + 4 + + +   1 + + + 2 + + + 3 + + + 4 + + +

G|-------------------------4-------|---------------------------------|
D|------------/7-------7-----------|-------------2-------3---4---5---|
A|-5---5---------------------------|-3-------------------------------|
E|---------------------------------|---------------------------------|
   1 + + + 2 + + + 3 + + + 4 + + +   1 + + + 2 + + + 3 + + + 4 + + +

G|---------------------------------|---------------------------------|
D|---------------------------------|---------------------------------|
A|-------------2---------2/3-------|-------------------------5.------|
E|-3---3---------------------------|-3---3-----------5.--------------|
   1 + + + 2 + + + 3 + + + 4 + + +   1 + + + 2 + + + 3 + + + 4 + + +

G|---------------------------------|---------------------------------|
D|---------------------------------|---------------------------------|
A|-------------2-------3---4---5---|-------------------------5\------|
E|-3---3---------------------------|-3---3-----------3.--------------|
   1 + + + 2 + + + 3 + + + 4 + + +   1 + + + 2 + + + 3 + + + 4 + + +

G|---------------------------------|---------------------------------|
D|-------------2-------3---4---5---|---------------------------------|
A|-3---3---------------------------|-3---3-------3-------2---3-------|
E|---------------------------------|---------------------------------|
   1 + + + 2 + + + 3 + + + 4 + + +   1 + + + 2 + + + 3 + + + 4 + + +

G|-------------------------4-------|---------------------------------|
D|------------/7-------7-------7---|---------------------------------|
A|-5---5---------------------------|-3---3-------3-------2---3---5---|
E|---------------------------------|---------------------------------|
   1 + + + 2 + + + 3 + + + 4 + + +   1 + + + 2 + + + 3 + + + 4 + + +

G|---------------------------------|---------------------------------|
D|---------------------------------|---------------------------------|
A|-2-----------2---2---2---2---2---|-2---2---2---2---2---2---2---2---|
E|---------------------------------|---------------------------------|
   1 + + + 2 + + + 3 + + + 4 + + +   1 + + + 2 + + + 3 + + + 4 + + +

G|---------------------------------|---------------------------------|
D|---------------------------------|---------------------------------|
A|-3---3-----------3---3---3-------|-3---------------3-------5-------|
E|---------------------------------|---------------------------------|
   1 + + + 2 + + + 3 + + + 4 + + +   1 + + + 2 + + + 3 + + + 4 + + +

[Instrumental]
G|-------------12------------------|---------------------------------|
D|-------------10------------------|---------------------------------|
A|10-------------------------------|---------5--5h7--7---7---7-------|
E|---------------------------------|---------------------------------|
   1 + + + 2 + + + 3 + + + 4 + + +   1 + + + 2 + + + 3 + + + 4 + + +

G|---------------------------------|---------------------------------|
D|-------------------------4---7---|-----7---4---4-------------------|
A|---------4-------7---7-----------|-----------------7---7---4/------|
E|-5-------------------------------|---------------------------------|
   1 + + + 2 + + + 3 + + + 4 + + +   1 + + + 2 + + + 3 + + + 4 + + +

G|-------------12------------------|---------------------------------|
D|-------------10------------------|---------------------------------|
A|10-------------------------------|-----7---7---7---7---7---7-------|
E|---------------------------------|---------------------------------|
   1 + + + 2 + + + 3 + + + 4 + + +   1 + + + 2 + + + 3 + + + 4 + + +


G|---------------------------------|---------------------------------|
D|-------------------------4---7.--|-----7.--4.--4.------------------|
A|-------------4-------7-----------|-----------------7---7---4---4---|
E|-5-------------------------------|---------------------------------|
   1 + + + 2 + + + 3 + + + 4 + + +   1 + + + 2 + + + 3 + + + 4 + + +

[Verse 3]
G|---------------------------------|---------------------------------|
D|-------------------------4---7.--|-----7.---4---4------------------|
A|-------------4-------7-----------|-----------------7---7-----------|
E|-5-------------------------------|---------------------------------|
   1 + + + 2 + + + 3 + + + 4 + + +   1 + + + 2 + + + 3 + + + 4 + + +

G|-------------------------4-------|---------------------------------|
D|-------------4-------7-----7-4---|---------------------------------|
A|-5---5---------------------------|-5---5-------5-------4---5-------|
E|---------------------------------|---------------------------------|
   1 + + + 2 + + + 3 + + + 4 + + +   1 + + + 2 + + + 3 + + + 4 + + +

G|-------------------------6-------|-------------9.------9---6-------|
D|-------------6.------9-------9---|-----------------------------9---|
A|-7---7---------------------------|-7---7---------------------------|
E|---------------------------------|---------------------------------|
   1 + + + 2 + + + 3 + + + 4 + + +   1 + + + 2 + + + 3 + + + 4 + + +

G|-------------------------6-------|---------------------------------|
D|-------------6.------9-------9---|---------------------------------|
A|-7---7---------------------------|-9---9---9---9---9---9---9---9---|
E|---------------------------------|---------------------------------|
   1 + + + 2 + + + 3 + + + 4 + + +   1 + + + 2 + + + 3 + + + 4 + + +

G|---------------------------------|
D|---------------------------------|
A|-9---9---9---9---9---9-----------|
E|-------------------------9\------|
   1 + + + 2 + + + 3 + + + 4 + + +

[Verse 4]
G|---------------------------------|---------------------------------|
D|-------------------------4-------|--------------7.-----7---4-------|
A|-------------4.------7-------7---|-----------------------------7---|
E|-5-------------------------------|-5-------------------------------|
   1 + + + 2 + + + 3 + + + 4 + + +   1 + + + 2 + + + 3 + + + 4 + + +

G|-------------------------4-------|---------------------------------|
D|-------------4-------7-------7---|---------------------------------|
A|-5-------------------------------|-5---5-------5.------4---5.------|
E|---------------------------------|---------------------------------|
   1 + + + 2 + + + 3 + + + 4 + + +   1 + + + 2 + + + 3 + + + 4 + + +

G|-------------------------6---9---|---------------------------------|
D|-------------6.------9-----------|-------------6-------7---8---9---|
A|-7-------------------------------|-7---7---------------------------|
E|---------------------------------|---------------------------------|
   1 + + + 2 + + + 3 + + + 4 + + +   1 + + + 2 + + + 3 + + + 4 + + +

G|-------------------------6---9---|---------------------------------|
D|-------------6.------9-----------|---------------------------------|
A|-7-------------------------------|-9---9---9---9---9---9---9---9---|
E|---------------------------------|---------------------------------|
   1 + + + 2 + + + 3 + + + 4 + + +   1 + + + 2 + + + 3 + + + 4 + + +

G|---------------------------------|
D|---------------------------------|
A|-9---9---9-------9---------------|
E|---------------------------------|
   1 + + + 2 + + + 3 + + + 4 + + +

[Pre-Chorus 2]
G|---------------------------------|---------------------------------|
D|---------------------------------|-7---7-------7.----------7.------|
A|---------5-----------------------|---------------------7-----------|
E|---------------------------------|---------------------------------|
   1 + + + 2 + + + 3 + + + 4 + + +   1 + + + 2 + + + 3 + + + 4 + + +

G|---------------------------------|---------------------------------|
D|-------------1-------2---3---4---|-------------4-------5---6---7---|
A|-2-------------------------------|-5---5---------------------------|
E|---------------------------------|---------------------------------|
   1 + + + 2 + + + 3 + + + 4 + + +   1 + + + 2 + + + 3 + + + 4 + + +

G|---------------------------------|---------------------------------|
D|---------------------------------|-7---7-------7.----------7.------|
A|---------5-----------------------|---------------------7-----------|
E|---------------------------------|---------------------------------|
   1 + + + 2 + + + 3 + + + 4 + + +   1 + + + 2 + + + 3 + + + 4 + + +

G|-------------------------6---9---|---------------------------------|
D|-------------6.------9-----------|---------------------------------|
A|-7-------------------------------|-7---7-------------------5.------|
E|---------------------------------|-----------------5.--------------|
   1 + + + 2 + + + 3 + + + 4 + + +   1 + + + 2 + + + 3 + + + 4 + + +

[Chorus 2]
G|---------------------------------|---------------------------------|
D|-------------------------2-------|---------------------------------|
A|-------------2.------5-------5---|-------------2-------3---5-------|
E|-3-------------------------------|-3---3---------------------------|
   1 + + + 2 + + + 3 + + + 4 + + +   1 + + + 2 + + + 3 + + + 4 + + +

G|-------------------------2-------|---------------------------------|
D|-------------2.------5-----5-2---|---------------------------------|
A|-3-------------------------------|-3---3-------3-------2---3-------|
E|---------------------------------|---------------------------------|
   1 + + + 2 + + + 3 + + + 4 + + +   1 + + + 2 + + + 3 + + + 4 + + +

G|---------------------4-----------|---------------------------------|
D|------------/7-----------7---4---|---------------------------------|
A|-5---5---------------------------|---------3-----------2---3-------|
E|---------------------------------|---------------------------------|
   1 + + + 2 + + + 3 + + + 4 + + +   1 + + + 2 + + + 3 + + + 4 + + +

G|---------------------------------|---------------------------------|
D|-------------------------2---5---|---------------------------------|
A|-------------2.------5-----------|-------------------------5.------|
E|-3-------------------------------|-3---3.----------5.--------------|
   1 + + + 2 + + + 3 + + + 4 + + +   1 + + + 2 + + + 3 + + + 4 + + +

G|---------------------------------|---------------------------------|
D|-------------------------2-------|---------------------------------|
A|-------------2.------5-----------|-------------------------5.------|
E|-3-------------------------------|-3---3-----------3.--------------|
   1 + + + 2 + + + 3 + + + 4 + + +   1 + + + 2 + + + 3 + + + 4 + + +

G|---------------------------------|---------------------------------|
D|---------------------5---7-5-----|---------------------------------|
A|-3---3.-----/7---------------7---|-3---3.------3-------2---3-------|
E|---------------------------------|---------------------------------|
   1 + + + 2 + + + 3 + + + 4 + + +   1 + + + 2 + + + 3 + + + 4 + + +

G|---------------------------------|---------------------------------|
D|------------/9-------7-----------|-------------2-------3---4---5---|
A|-5-----------------------9---7---|-3---3.--------------------------|
E|---------------------------------|---------------------------------|
   1 + + + 2 + + + 3 + + + 4 + + +   1 + + + 2 + + + 3 + + + 4 + + +

G|---------------------------------|---------------------------------|
D|---------------------------------|---------------------------------|
A|-2---2---2---2---2---2---2---2---|-2---2---2---2---2---2---2---2---|
E|---------------------------------|---------------------------------|
   1 + + + 2 + + + 3 + + + 4 + + +   1 + + + 2 + + + 3 + + + 4 + + +

G|---------------------------------|---------------------------------|
D|-------------2-------3---4---5---|---------------------------------|
A|-3---3---------------------------|-3---3.------3-------2---5\------|
E|---------------------------------|---------------------------------|
   1 + + + 2 + + + 3 + + + 4 + + +   1 + + + 2 + + + 3 + + + 4 + + +

[Coda]
G|---------------------------------|---------------------------------|
D|/5---5-------5-------------------|---------------------------------|
A|-------------3-------------------|---------------------------------|
E|---------------------------------|---------------------------------|
   1 + + + 2 + + + 3 + + + 4 + + +   1 + + + 2 + + + 3 + + + 4 + + +

G|---------------------------------|---------------------------------|
D|---------------------------------|---------------------------------|
A|-----3---3---3---3-----------3---|-----3---3---3---3---3---3-------|
E|---------------------------------|---------------------------------|
   1 + + + 2 + + + 3 + + + 4 + + +   1 + + + 2 + + + 3 + + + 4 + + +

G|---------------------------------|---------------------------------|
D|---------------------------------|---------------------------------|
A|-------------2-------------------|-------------2-------3---5-------|
E|-3---------------3-------3-------|-----3---------------------------|
   1 + + + 2 + + + 3 + + + 4 + + +   1 + + + 2 + + + 3 + + + 4 + + +

G|---------------------------------|---------------------------------|
D|-------------2-------3---4---5---|---------------------------------|
A|-3-------------------------------|-3---3-------3-------2---3-------|
E|---------------------------------|---------------------------------|
   1 + + + 2 + + + 3 + + + 4 + + +   1 + + + 2 + + + 3 + + + 4 + + +

G|---------------------------------|---------------------------------|
D|---------------------------------|---------------------2---5-------|
A|-------------2-----------3-------|-----4-------5-------------------|
E|-3-------------------------------|---------------------------------|
   1 + + + 2 + + + 3 + + + 4 + + +   1 + + + 2 + + + 3 + + + 4 + + +

G|---------------------------------|---------------------------------|
D|------------/5-------5---7---5---|-----------------------------5---|
A|-3-------------------------------|-3-----------3-------2---3-------|
E|---------------------------------|---------------------------------|
   1 + + + 2 + + + 3 + + + 4 + + +   1 + + + 2 + + + 3 + + + 4 + + +

G|---------------------------------|---------------------------------|
D|-------------5-------5-----------|-----5---------------5-----------|
A|---------------------------------|-------------5-----------5---4---|
E|-3-----------------------3-------|---------------------------------|
   1 + + + 2 + + + 3 + + + 4 + + +   1 + + + 2 + + + 3 + + + 4 + + +

G|---------------------------------|---------------------------------|
D|---------------------5---7---5---|---------------------2---3---5---|
A|-3----------/7-------------------|-3---3-------3-------------------|
E|---------------------------------|---------------------------------|
   1 + + + 2 + + + 3 + + + 4 + + +   1 + + + 2 + + + 3 + + + 4 + + +

G|---------------------------------|---------------------------------|
D|-------------5-------5-----------|-----5---------------------------|
A|---------------------------------|-----------------2---3---4---5---|
E|-3-----------------------3-------|-------------3-------------------|
   1 + + + 2 + + + 3 + + + 4 + + +   1 + + + 2 + + + 3 + + + 4 + + +

G|---------------------------------|---------------------------------|
D|---------------------------------|-------------2-------3---4---5---|
A|-3---3-------3-----------3-------|-----3---------------------------|
E|---------------------3-----------|---------------------------------|
   1 + + + 2 + + + 3 + + + 4 + + +   1 + + + 2 + + + 3 + + + 4 + + +

G|---------------------------------|---------------------------------|
D|---------------------------------|---------------------------------|
A|---------------------5-----------|-----2-------3-------2---3---5---|
E|-3---3-------3-----------3-------|---------------------------------|
   1 + + + 2 + + + 3 + + + 4 + + +   1 + + + 2 + + + 3 + + + 4 + + +

G|---------------------------------|---------------------------------|
D|---------------------------------|---------------------2---3---4---|
A|-3---3-------3-------3-------3---|-3---3-------3-------------------|
E|---------------------------------|---------------------------------|
   1 + + + 2 + + + 3 + + + 4 + + +   1 + + + 2 + + + 3 + + + 4 + + +

G|---------------------------------|---------------------------------|
D|-5---5-------5-----------5-------|---------5---------------5-------|
A|---------------------5-----------|---------------------5-----5-4---|
E|---------------------------------|---------------------------------|
   1 + + + 2 + + + 3 + + + 4 + + +   1 + + + 2 + + + 3 + + + 4 + + +


G|---------------------------------|---------------------------------|
D|---------------------2-----------|-----2-------3-------3---4---5---|
A|-3---3-------3---------------3---|---------------------------------|
E|---------------------------------|---------------------------------|
   1 + + + 2 + + + 3 + + + 4 + + +   1 + + + 2 + + + 3 + + + 4 + + +

G|---------------------------------|---------------------------------|
D|---------------------------------|---------------------------------|
A|---------------------------------|---------------------2---3---5---|
E|-3---3-------3---3---3-------3---|-3---3-------3---3---------------|
   1 + + + 2 + + + 3 + + + 4 + + +   1 + + + 2 + + + 3 + + + 4 + + +

G|---------------------------------|---------------------------------|
D|---------------------------------|-----2-------3-------4---5-------|
A|-3---3-------3---3---3-------3---|---------------------------------|
E|---------------------------------|-----------------------------0---|
   1 + + + 2 + + + 3 + + + 4 + + +   1 + + + 2 + + + 3 + + + 4 + + +

G|---------------------------------|---------------------------------|
D|---------------------------------|---------------------------------|
A|---------------------------------|---------------------2---3---5---|
E|-3---3-------3---3---3-------3---|-3---3-------5-------------------|
   1 + + + 2 + + + 3 + + + 4 + + +   1 + + + 2 + + + 3 + + + 4 + + +

G|---------------------------------|---------------------------------|
D|---------------------------------|-----2-------3-------4---5-------|
A|-3---3-------3---3---3-------3---|---------------------------------|
E|---------------------------------|-----------------------------0---|
   1 + + + 2 + + + 3 + + + 4 + + +   1 + + + 2 + + + 3 + + + 4 + + +

(Fade out)


************************************

| .  Short note
| h  Hammer-on
| p  Pull-off
| /  Slide up
| \  Slide down

************************************

            
            
Suggest correction
Creating personal tab
Creating personal tab
You can edit any tab online and save it as your Personal.

You can edit, replace or remove any tab part or add personal notes – all changes will be seen only by you.

Personal tabs can be accessed anytime from any device, even offline.
Learn more »
Give kudos to tab author, rate the tab!
1 2 3 4 5
comments
print report bad tab
guest
You may want to rate the tab now too:
select rating
Wanna post a correction for this tab? Suggest correction