Oops, an error
Loading. Please wait.

Wild Is The Wind bass

version 1
version 1

Whole song

Interactive

646 views 18 this week
no commentswrite comment
1 2 3 4 5
1 last vote to show rating
add to favorites
×
Save as Personal and add changes to this tab that will be seen only by you. Learn more ›
×
You can save this tab as Personal to edit and correct it or add notes. All changes will be seen only by you. Learn more »
launch autoscroll
font size
0
reset
guitar tuner
edit
Autoscroll
slow
fast
+/-
esc
set tempo
stop
Author
-----------------------------------------------------------------------
                    Wild is the Wind - David Bowie 
-----------------------------------------------------------------------
Tabbed by: Mati Tallica
Tuning: EADG 
Note: Here's my tab of the BEST VERSION of this song ever recorded.
      R.I.P David Bowie

[Intro]

G|-------------------------------|------------------------------------|
D|---7---------7-7-----7---7---7-|--5-------------5----------5----5---|
A|-------7-7-------------7---7---|------5-5---5h7------5--5-----5-----|
E|-------------------------------|------------------------------------|

G|-------------------------------|-----7------------------------------|
D|---3---------3-3---------3-----|------------------------------------|
A|-------3-3----------3-3----3-4-|-5-----5--------5----5-5----5---5h7-|
E|-------------------------------|------------5-------------5---------|

G|-------------------------------|------------------------------------|
D|--5----5------5----5-5-----5---|------------------------------------|
A|-----------5------------5----5-|-7---7-7------7----5--7--5------5---|
E|-------------------------------|-----------7-----------------7------|

[Verse 1]

            "Love me.."              "say you do"
G|-------------------------------|------------------------------------|
D|--7------------7-7-------------|------7-7------------7-7--------5-6-|
A|--------7-7----------7-7-----7-|-5------------5-5-------------7-----|
E|-------------------------------|------------------------------------|

                    "Let me.."      "away"
G|-------------------------------|------------------------------------|
D|--7----------5-6-7------7---5--|-----7-7-------------7-7-------3----|
A|--------7-7---------7-7---7--7-|-5------------5-------------5-----5-|
E|-------------------------------|------------------------------------|

             "For my love.."         "..The wind"
G|-------------------------------|------------------------------------|
D|--5-----5-5----------------5---|---------------------------2-3--4-5-|
A|-------------5------3-3--5---5-|--3------3-3-------3-----3----------|
E|---------------3---------------|----------------3-------------------|
 
      "And wild.."                    "Wild is the wind"
G|-------------------------------|------------------------------------|
D|--7------------7-7---------7---|-------9-9--------------------------|
A|--------7-7----------7-7-------|--7-----------7-7-------7---7-------|
E|-------------------------------|----------------------7---7---7\----|

[Verse 2]

                 "Give me"               "that one caress"
G|-------------------------------|------------------------------------|
D|-------------------------------|---------7-7--------------7-7-----7-|
A|--------7-7---7-----7-7------7-|--5---------------5-----------------|
E|--5-------------5---------5----|------------------------------------|

                       "Satisfy"          "Hungriness"
G|-------------------------------|-------------------------2----------|
D|--7-----------7-7--------7---7-|---------7-7---------------2-2--3-4-|
A|--------7-7---------7-7----7---|--5--------------5-5----------------|
E|-------------------------------|------------------------------------|
            
                "let the wind"        "..you heart"
G|-------------------------------|------------------------------------|
D|--5----5-5----5----5-5---3-5---|-------------------------2-3-4--5-6-|
A|-----------------------------5-|--3-----3-3------3-----3------------|
E|-------------------------------|--------------3---------------------|
  
    "For wild"                                    "Wild is the wind"
G|-------------------------------|------------------------------------|
D|--7-----------7-----------7----|------------------------------------|
A|-------7-7--------7-7-------7--|-----------------7-7----7-7----7-7--|
E|-------------------------------|------------------------------------|

[Chorus]

      "You.."                        "..touch me"
G|-------------------------------|------------------------------------|
D|-----------------------------5-|--7----7-7---7-5-7-----7-7------7---|
A|--3----3-3---3-3---3-3---5-7---|------------------------------7---7-|
E|-------------------------------|------------------------------------|

            "I hear.."              "..of mandolines"                 
G|-------------------------------|------------------------------------|
D|-------------------------------|------------------------------------|
A|--8----8-8------8---8-8------3-|--5-----5-5------5-----5-5--------5-|
E|--------------8----------3-5---|---------------5--------------5-7---|

             "You.."                         "..kiss me"
G|-------------------------------|------------------------------------|
D|-------------------------------|----------------------------5-----5-|
A|--7----7-7------7---7-7----5-6-|--7----------7-7-----7-7-------7----|
E|--------------7----------7-----|--------5-5-------------------------|

         "with your.."              "..begins" 
G|-------------------------------|------------------------------------|
D|--7-----------7-7------7---7---|--5---------------5--------------5--|
A|-------7-7-----------7---5---5-|--------5-5-----5--------5-5--------|
E|-------------------------------|------------------------------------|
                                                              
          "You're spring"                 "all things.."       "Don't"
G|-------------------------------|-----------------------------|------|
D|--3-----3-3-------3----5-------|-3----3-3-------3----2-------|-0----|
A|--------------3-5----------3-5-|-------------3-5---------0h3-|------|
E|-------------------------------|-----------------------------|------|

[Verse 3]

               "like the leaf"       "Clings"
G|-------------------------------|---------------------------7-7------|
D|--7----------------------7---7-|--------7-7----------7-7----7---5-6-|
A|-------7-7---5-7----7-7-----7--|--5--------------5------------------|
E|----------------5--------------|------------------------------------|

               "oh my"                    "cling"
G|-------------------------------|-------------------------7/9-7--5---|
D|--7-----------7-7----------7---|-----------------------7----------7-|
A|--------7-7---------7-7------7-|--5--------------5-5----------------|
E|-------------------------------|---------5-5------------------------|
            
                "For we're"         "of the wind"
G|-------------------------------|------------------------------------|
D|--5---5---5-5----5-------------|----------------------------2-3-5-6-|
A|---------------5--------5----5-|--3-------------3-3------3----------|
E|---------------------3-----3---|---------3-3------------------------|
  
    "and wild"                          "Wild is the wind"
G|-------------------------------|------------------------------------|
D|--7-----------7-7--------7-----|--------------------5----5--5-3-2-0-|
A|-------7-7----------7-7----5-6-|--7------7-7----5-7-----------------|
E|-------------------------------|------------------------------------|

[Chorus]

       "You.."                  "touch me"
G|-------------------------------|--------------------------7---------|
D|-----------------------2-3-5-6-|--7---------------7-----7---7-------|
A|--3----3-3-----3----3----------|---------7-7----7---------------5-7-|
E|-------------3-----------------|------------------------------------|

          "I hear.."              "mandolines"                 
G|-------------------------------|------------------------------------|
D|-------------------------------|-------7-7---5h7-------7--7-----7---|
A|--8----------------8-------8---|---5-------------5------------5---5-|
E|-------8-8----8-10-----8-8---8-|------------------------------------|

            "You.."                              "kiss me"
G|-------------------------------|--------------------9------9----9-7-|
D|-------------------------------|------------------------------------|
A|--7----7-7------7---7-7--5-7-5-|--7----7-7----5--7------7-----------|
E|--------------7----------------|------------------------------------|

            "with your.."         "life begins" 
G|-------------------------------|----------------------------------2-|
D|--7-----------7-7----------7---|--5-------------5-5-------5----5----|
A|-------7-7------------7-7----5-|--------5-5-------------5----5------|
E|-------------------------------|------------------------------------|
                                                              
        "You're spring"               "all.."                   "Don't"
G|-------------------------------|-----------------------------|------|
D|--3----3-3------3-----5--------|-3---3-3-----3-----2---------|-0----|
A|-------------3-5-----------3-5-|----------3-5-----2----2h3p0-|------|
E|-------------------------------|-----------------------------|------|
        
[Verse 4]

                 "Like the"       "clings"
G|-------------------------------|------------------------------------|
D|--7------------7---------7-----|--------7---7-5-----7--7--5------5--|
A|-------7-7---7----7-7--7---7-6-|--5---5--------5--------------7-----|
E|-------------------------------|------------------------------------|
 
           "Oh my.."              "Cling"
G|-------------------------------|------------------------------------|
D|--7--------------7---------7---|---------7-7-------------7-7--------|
A|--------7-7----7----7-7------7-|--5--------------5-5----------5-----|
E|-------------------------------|--------------------------------0-2-|

        "For we're"                  "in the wind"             
G|-------------------------------|----------------------5-------------|
D|-------------------------------|--------5-5----------5------2-3-4-5-|
A|--------5-5----------5-------2-|--3-------------3-3-------3---------|
E|--3-----------5-4-3------3-5---|------------------------------------|


"and wild"                                 "Wild is"
G|-------------------------------|--------------------------5-3-2-0---|
D|--7-------------7----7---7/9p7-|--5-------------5-5----5------------|
A|--------7-7---7----7---7-------|--------5-5-------------------------|
E|-------------------------------|------------------------------------|

               "wild"                            "wild" 
G|-------------------------------|------------------------------------|
D|--3-----------3-3--------------|--------------------------------5-4-|
A|--------3-3----3---------0-2-3-|--5-------------5-5--------5--------|
E|-------------------------------|--------5-5-------------5----5------|
 
                "Wild...."                                  "..is.."
G|------0-0----------------------|------------------------------------|
D|--3---------3------5-5--5------|--------------------------------5-6-|
A|---------------------------5-6-|--7----7-7-7---7-7---7---7--7-------|
E|--------------3----------------|------------------------------------|

[Outro]

 "..the wind"
G|-----------------------5---5---|-----------------------5---5----2-0-|
D|--7---------7-7------7---7---7-|--5-----------5-5----5---5----------|
A|------7-7----------------------|-------5-5--------------------------|
E|-------------------------------|------------------------------------|

G|---------------------5---5-----|-------------------------7---7------|
D|--3---------3-3----3---3----3--|-----------------------7---7---7----|
A|------3-3--------------------3-|--5---------------5-----------------|
E|-------------------------------|--------5-5---5-7-------------------|

G|-------------------------------|------------------------------11/12-|
D|--3------------5---5-5--5----0-|--2----2-2---12-14--12-14--12-11/12-|
A|-------------------------------|------------------------------------|
E|-------------------------------|------------------------------------|

[Fade Out]

G|--------------------------------------------------------------------|
D|--7-------------5-7------------5-7------------5-7-------------------|
A|---------7-7-----------7-7------------7-7------------7-7............|
E|--------------------------------------------------------------------|

***********************************************************************

| x   Dead note
| g   Grace note
| (n) Ghost note
| h   Hammer-on
| p   Pull-off
| r   Release
| >   Accented note
| t   Tapping
| b   Bend
| br  Bend release
| pb  Pre-bend
| pbr Pre-bend release
| /   Slide up
|    Slide down
| ~   Vibrato
| s   Slap
| P   Pop
| PM  Palm mute
| TR  Trill
| N   Tremolo

***********************************************************************

            
            
Suggest correction
Creating personal tab
Creating personal tab
You can edit any tab online and save it as your Personal.

You can edit, replace or remove any tab part or add personal notes – all changes will be seen only by you.

Personal tabs can be accessed anytime from any device, even offline.
Learn more »
Give kudos to tab author, rate the tab!
1 2 3 4 5
comments
print report bad tab
guest
You may want to rate the tab now too:
select rating
Wanna post a correction for this tab? Suggest correction