Oops, an error
Loading. Please wait.

You Will Set The World On Fire bass

10 views 3 this week
no commentswrite comment
1 2 3 4 5
3 more votes to show rating
add to favorites
×
Save as Personal and add changes to this tab that will be seen only by you. Learn more ›
×
You can save this tab as Personal to edit and correct it or add notes. All changes will be seen only by you. Learn more »
launch autoscroll
font size
0
reset
guitar tuner
edit
Autoscroll
slow
fast
+/-
esc
set tempo
stop
David Bowie - (You Will) Set the World on Fire
from The Next Day (2013)

As simple as it gets!

Tabbed by Leo Chiurco

[Intro] Starts at 0:07
G|---------------------------------|---------------------------------|
D|---------------------------------|---------------------------------|
A|---------7---5-------------------|---------------------------------| (x2)
E|-0---0---------------------------|-5---5---7---8-------------------|
   1 + + + 2 + + + 3 + + + 4 + + +   1 + + + 2 + + + 3 + + + 4 + + +

[Verse 1] "Midnight in the village ..."
G|---------------------------------|---------------------------------|
D|---------------------------------|---------------------------------|
A|---------------------------------|---------------------------------| (x4)
E|-0---0---------------------------|-5---5---5-----------------------|
   1 + + + 2 + + + 3 + + + 4 + + +   1 + + + 2 + + + 3 + + + 4 + + +

G|---------------------------------|---------------------------------|
D|---------------------------------|---------------------------------|
A|---------7---5-------------------|---------------------------------| (x2)
E|-0---0---------------------------|-5---5---7---8-------------------|
   1 + + + 2 + + + 3 + + + 4 + + +   1 + + + 2 + + + 3 + + + 4 + + +

[Chorus 1] "You will set the world, babe ..."
G|-------------9-------------------|-------------7-------------------|
D|---------9-----------9-----------|---------7-----------7-----------|
A|-7-----------------------7-------|-5-----------------------5-------|\
E|---------------------------------|---------------------------------| \
   1 + + + 2 + + + 3 + + + 4 + + +   1 + + + 2 + + + 3 + + + 4 + + +    \
                                                                         (x3)
G|-------------5-------------------|---------------------------------|  /
D|---------5-----------5-----------|-4-------5-------7-------9-------| /
A|-3-----------------------3-------|---------------------------------|/
E|---------------------------------|---------------------------------|
   1 + + + 2 + + + 3 + + + 4 + + +   1 + + + 2 + + + 3 + + + 4 + + +

G|-------------9-------------------|-------------7-------------------|
D|---------9-----------9-----------|---------7-----------7-----------|
A|-7-----------------------7-------|-5-----------------------5-------|
E|---------------------------------|---------------------------------|
   1 + + + 2 + + + 3 + + + 4 + + +   1 + + + 2 + + + 3 + + + 4 + + +

G|---------------------------------|---------------------------------|
D|---------------------------------|---------------------------------|
A|-1-------1-------1-------1-------|-1-------1-------1---1---1-------|
E|---------------------------------|---------------------------------|
   1 + + + 2 + + + 3 + + + 4 + + +   1 + + + 2 + + + 3 + + + 4 + + +

G|---------------------------------|---------------------------------|
D|---------------------------------|---------------------------------|
A|-3-------3-------3---3---3-------|-3-------3-------3---3---3-------|
E|---------------------------------|---------------------------------|
   1 + + + 2 + + + 3 + + + 4 + + +   1 + + + 2 + + + 3 + + + 4 + + +

[Intro]
G|---------------------------------|---------------------------------|
D|---------------------------------|---------------------------------|
A|---------7---5-------------------|---------------------------------| (x2)
E|-0---0---------------------------|-5---5---7---8-------------------|
   1 + + + 2 + + + 3 + + + 4 + + +   1 + + + 2 + + + 3 + + + 4 + + +

[Verse 2] "Kennedy would kill ..."
G|---------------------------------|---------------------------------|
D|---------------------------------|---------------------------------|
A|---------------------------------|---------------------------------| (x4)
E|-0---0---------------------------|-5---5---5-----------------------|
   1 + + + 2 + + + 3 + + + 4 + + +   1 + + + 2 + + + 3 + + + 4 + + +

G|---------------------------------|---------------------------------|
D|---------------------------------|---------------------------------|
A|---------7---5-------------------|---------------------------------|
E|-0---0---------------------------|-5---5---7---8-------------------|
   1 + + + 2 + + + 3 + + + 4 + + +   1 + + + 2 + + + 3 + + + 4 + + +

G|---------------------------------|---------------------------------|
D|---------------------------------|---------------------------------|
A|---------7---5-------------------|---------------------------------|
E|-0---0---------------------------|-5---5---7---8------/-------\----|
   1 + + + 2 + + + 3 + + + 4 + + +   1 + + + 2 + + + 3 + + + 4 + + +

[Chorus 2] "You will set the world, babe ..."
G|-------------9-------------------|-------------7-------------------|
D|---------9-----------9-----------|---------7-----------7-----------|
A|-7-----------------------7-------|-5-----------------------5-------|\
E|---------------------------------|---------------------------------| \
   1 + + + 2 + + + 3 + + + 4 + + +   1 + + + 2 + + + 3 + + + 4 + + +    \
                                                                         (x3)
G|-------------5-------------------|---------------------------------|  /
D|---------5-----------5-----------|-4-------5-------7-------9-------| /
A|-3-----------------------3-------|---------------------------------|/
E|---------------------------------|---------------------------------|
   1 + + + 2 + + + 3 + + + 4 + + +   1 + + + 2 + + + 3 + + + 4 + + +

G|-------------9-------------------|-------------7-------------------|
D|---------9-----------9-----------|---------7-----------7-----------|
A|-7-----------------------7-------|-5-----------------------5-------|
E|---------------------------------|---------------------------------|
   1 + + + 2 + + + 3 + + + 4 + + +   1 + + + 2 + + + 3 + + + 4 + + +

G|---------------------------------|---------------------------------|
D|---------------------------------|---------------------------------|
A|-1-------1-------1-------1-------|-1---1---1-------1-------1-------|
E|---------------------------------|---------------------------------|
   1 + + + 2 + + + 3 + + + 4 + + +   1 + + + 2 + + + 3 + + + 4 + + +

G|---------------------------------|---------------------------------|
D|---------------------------------|---------------------------------|
A|-3-------3-------3---3---3-------|-3-------3-------3---/-------\---|
E|---------------------------------|---------------------------------|
   1 + + + 2 + + + 3 + + + 4 + + +   1 + + + 2 + + + 3 + + + 4 + + +

[Solo]
G|---------------------------------|---------------------------------|
D|---------------------------------|---------------------------------|
A|---------------------------------|---------------------------------|
E|-5-------5-------5---5---5-------|-7-------7-------7---7---7-------|
   1 + + + 2 + + + 3 + + + 4 + + +   1 + + + 2 + + + 3 + + + 4 + + +

G|---------------------------------|---------------------------------|
D|---------------------------------|---------------------------------|
A|---------------------------------|---------------------------------|
E|-8-------8-------8-------8-------|-10--10--10------10--10--10------|
   1 + + + 2 + + + 3 + + + 4 + + +   1 + + + 2 + + + 3 + + + 4 + + +

G|---------------------------------|---------------------------------|
D|---------------------------------|---------------------------------|
A|---------------------------------|---------------------------------|
E|-5-------5-------5---5---5---5---|-7-------7-------7---7---7-------|
   1 + + + 2 + + + 3 + + + 4 + + +   1 + + + 2 + + + 3 + + + 4 + + +

G|---------------------------------|---------------------------------|
D|---------------------------------|---------------------------------|
A|---------------------------------|---------------------------------|
E|-8---8---8---8---8---8---8---8---|-10--10--10--10--10--10--10--10--|
   1 + + + 2 + + + 3 + + + 4 + + +   1 + + + 2 + + + 3 + + + 4 + + +

[Chorus 3] "You will set the world, babe ..."
G|---------------------------------|---------------------------------|
D|---------------------------------|---------------------------------|
A|-7---7---7---7-------------------|-5---5---5---5---/------------\--|
E|---------------------------------|---------------------------------|
   1 + + + 2 + + + 3 + + + 4 + + +   1 + + + 2 + + + 3 + + + 4 + + +

G|-------------5-------------------|---------------------------------|  
D|---------5-----------5-----------|-4-------5-------7-------9-------| 
A|-3-----------------------3-------|---------------------------------|
E|---------------------------------|---------------------------------|
   1 + + + 2 + + + 3 + + + 4 + + +   1 + + + 2 + + + 3 + + + 4 + + +

G|-------------9-------------------|-------------7-------------------|
D|---------9-----------9-----------|---------7-----------7-----------|
A|-7-----------------------7-------|-5-----------------------5-------|\
E|---------------------------------|---------------------------------| \
   1 + + + 2 + + + 3 + + + 4 + + +   1 + + + 2 + + + 3 + + + 4 + + +    \
                                                                         (x2)
G|-------------5-------------------|---------------------------------|  /
D|---------5-----------5-----------|-4-------5-------7-------9-------| /
A|-3-----------------------3-------|---------------------------------|/
E|---------------------------------|---------------------------------|
   1 + + + 2 + + + 3 + + + 4 + + +   1 + + + 2 + + + 3 + + + 4 + + +

G|-------------9-------------------|-------------7-------------------|
D|---------9-----------9-----------|---------7-----------7-----------|
A|-7-----------------------7-------|-5-----------------------5-------|
E|---------------------------------|---------------------------------| 
   1 + + + 2 + + + 3 + + + 4 + + +   1 + + + 2 + + + 3 + + + 4 + + + 

G|---------------------------------|---------------------------------|
D|---------------------------------|---------------------------------|
A|-1-------1-------1---1-------1---|-1-------1-------1---1---1-------|
E|---------------------------------|---------------------------------|
   1 + + + 2 + + + 3 + + + 4 + + +   1 + + + 2 + + + 3 + + + 4 + + +

G|---------------------------------|---------------------------------|
D|---------------------------------|---------------------------------|
A|-3-------3-------3-------3-------|-3---3---3-------3---3---3-------|
E|---------------------------------|---------------------------------|
   1 + + + 2 + + + 3 + + + 4 + + +   1 + + + 2 + + + 3 + + + 4 + + +

[Chorus 4] "You will set the world, babe ..."
G|---------------------------------|---------------------------------|
D|---------------------------------|---------------------------------|\
A|-7---7---7---7-------------------|-5---5---5---5-------------------| \
E|---------------------------------|---------------------------------|  \
   1 + + + 2 + + + 3 + + + 4 + + +   1 + + + 2 + + + 3 + + + 4 + + +     \
                                                                          (x2)
G|---------------------------------|---------------------------------|   /
D|---------------------------------|-4---4---5---5---7---7---9---9---|  /
A|-3---3---3---3-------------------|---------------------------------| /
E|---------------------------------|---------------------------------|/
   1 + + + 2 + + + 3 + + + 4 + + +   1 + + + 2 + + + 3 + + + 4 + + +

G|-------------9-------------------|-------------7-------------------|
D|---------9-----------9-----------|---------7-----------7-----------|
A|-7-----------------------7-------|-5-----------------------5-------|
E|---------------------------------|---------------------------------| 
   1 + + + 2 + + + 3 + + + 4 + + +   1 + + + 2 + + + 3 + + + 4 + + +   
                                                                        
G|-------------5-------------------|---------------------------------|  
D|---------5-----------5-----------|-4-------5-------7-------9-------| 
A|-3-----------------------3-------|---------------------------------|
E|---------------------------------|---------------------------------|
   1 + + + 2 + + + 3 + + + 4 + + +   1 + + + 2 + + + 3 + + + 4 + + +

G|-------------9-------------------|-------------7-------------------|
D|---------9-----------9-----------|---------7-----------7-----------|
A|-7-----------------------7-------|-5-----------------------5-------|
E|---------------------------------|---------------------------------| 
   1 + + + 2 + + + 3 + + + 4 + + +   1 + + + 2 + + + 3 + + + 4 + + +  

G|---------------------------------|---------------------------------|
D|---------------------------------|---------------------------------|
A|-1-------1-------1---1---1-------|-1-------1-------1---1---1-------|
E|---------------------------------|---------------------------------|
   1 + + + 2 + + + 3 + + + 4 + + +   1 + + + 2 + + + 3 + + + 4 + + +

G|---------------------------------|---------------------------------|
D|---------------------------------|---------------------------------|
A|-3-------3-------3---3---3-------|-3-------3-------3---3---3-------|
E|---------------------------------|---------------------------------|
   1 + + + 2 + + + 3 + + + 4 + + +   1 + + + 2 + + + 3 + + + 4 + + + 

G|---------------------------------|
D|---------------------------------|
A|---------------------------------|
E|-0---0---0---0-------------------|
   1 + + + 2 + + + 3 + + + 4 + + +  

***********************************

 | / Slide up
 | \ Slide down

***********************************

            
            
Suggest correction
Creating personal tab
Creating personal tab
You can edit any tab online and save it as your Personal.

You can edit, replace or remove any tab part or add personal notes – all changes will be seen only by you.

Personal tabs can be accessed anytime from any device, even offline.
Learn more »
Give kudos to tab author, rate the tab!
1 2 3 4 5
comments
print report bad tab
guest
You may want to rate the tab now too:
select rating
Wanna post a correction for this tab? Suggest correction