Oops, an error
Loading. Please wait.

Ziggy Stardust Chords

version 1
version 1

Acoustic

Whole song

Interactive

75,898 views 228 this week
8 commentsread comments
1 2 3 4 5
x 55
add to favorites
launch autoscroll
font size
0
reset
transpose
0
reset
simplify chords
display chords
guitar tuner
Autoscroll
slow
fast
+/-
esc
set tempo
stop
Help us to improve Ultimate-Guitar.com Take our survey!
×
Author
Difficulty
intermediate
DAVID BOWIE, ZIGGY STARDUST

[Intro]
                                         (I like to play that)
        G           D                            \ /
e|------3-----------2----3----2----3----2---------0----------------------------------|
B|------------3----3----3----3----3--------------------------------------------------|
G|------2----2----2----2----2--------------------------------------------------------|
D|----------------------------------------------------------------2------------------|
A|----------------------------------------------------------3------------------------|
E|-----------------------------------------------------------------------------------|

e|--------------------------| Play x4 times
B|--------------------------|
G|-------0-------0----------|
D|-----0-------0------------|
A|---3-------2------0-------|
E|--------------------------|


[Verse]

  G                     B                          C
Ziggy played guitar, jamming good with Weird and Gilly, The Spiders from
 D                       G                    Em                      Am
Mars. He played it left hand, but made it too far, Became the special man,
                C            G                   B
then we were Ziggy's Band. Ziggy really sang, screwed up eyes and screwed
       C                         D                            G
down hairdo Like some cat from Japan, he could lick 'em by smiling He could
              Em               Am                       C
leave 'me to hang Came on so loaded man, well hung and snow white tan.


[Refrain] Played in barea chords

(on the (FM) release your indexfinger and press it back agian, (listen to the song))

AM       GM              FM          AM    GM            FM
.....So where were the spiders while   the fly tried to break our balls
    AM      GM            FM                D
Just   the beer light to guide us, So we bitched about his fans and should
we
 EM
crush his sweet hands?  


[Instrumental] x2
                                         (I like to play that)
        G           D                            \ /
e|------3-----------2----3----2----3----2---------0----------------------------------|
B|------------3----3----3----3----3--------------------------------------------------|
G|------2----2----2----2----2--------------------------------------------------------|
D|----------------------------------------------------------------2------------------|
A|----------------------------------------------------------3------------------------|
E|-----------------------------------------------------------------------------------|

e|--------------------------| Play x4 times
B|--------------------------|
G|-------0-------0----------|
D|-----0-------0------------|
A|---3-------2------0-------|
E|--------------------------|


[Verse 2]

  G                      B                      C
Ziggy played for time, jiving us that we were Voodoo The kids was just
  D                G                  Em                     Am
crass, he was the naz, With God given ass He took it all too far but boy
                C
could he play guitar.


[Refrain] played in Barea chords

 AM          GM           FM   AM        GM        FM
.....Making love with his ego,   Ziggy sucked up into his
      AM         GM       FM            D
mind,    Like a leper messiah When the kids had killed the man I had to
 Em
break up the band.


[Instrumental] x4
                                         (I like to play that)
        G           D                            \ /
e|------3-----------2----3----2----3----2---------0----------------------------------|
B|------------3----3----3----3----3--------------------------------------------------|
G|------2----2----2----2----2--------------------------------------------------------|
D|----------------------------------------------------------------2------------------|
A|----------------------------------------------------------3------------------------|
E|-----------------------------------------------------------------------------------|

e|--------------------------| Play x4 times
B|--------------------------|
G|-------0-------0----------|
D|-----0-------0------------|
A|---3-------2------0-------|
E|--------------------------|

Enjoy!

By Carl Stare Sweden.
Suggest correction
comments
print report bad tab
8 comments total. Showing first comments.
0 reply
Megamanlius 300 Sep 06, 2008 07:08 AM

this was great

+3 reply
arnoldlayne1986 10 Sep 18, 2008 11:59 AM

in the chorus the chords Am, Gm and Fm aren't right in my opinion

0 reply
messymarionette 10 Sep 20, 2008 12:14 PM

I don't think the intro's right...

guest
You may want to rate the tab now too:
select rating
Wanna post a correction for this tab? Suggest correction