Oops, an error
Loading. Please wait.
We have an official Ziggy Stardust tab made by UG professional guitarists. Check out the tab »
×
82,171 views 9 this week
1 commentread comment
1 2 3 4 5
x 6
add to favorites
×
Save as Personal and add changes to this tab that will be seen only by you. Learn more ›
×
You can save this tab as Personal to edit and correct it or add notes. All changes will be seen only by you. Learn more »
launch autoscroll
font size
0
reset
how to read this tab
guitar tuner
backing track
0:00
0:00
edit
Autoscroll
slow
fast
+/-
esc
set tempo
stop
Author
Difficulty
intermediate
I looked at other tabs for this song and they just weren't right or they were just for 
the rhythm guitar.
Now im not sure mine is perfect... but to me it sounds pretty accurate.

P.S.- I was going to write lyrics along with the tabs but I realized I didnt give myself enough room.
So sorry about that.
Ill just put the beggingings of each part.


[Intro]
E|--3---x-----2h3-2h3--2-------------------------------------|
G|--3---x-----3---3----3--3-------3--3-----3--3-----3--------|
B|--0---x-----2---2----2--2--------0--0-----0--0-----0-------|(x 4)
D|--0---x-----------------0----2----2----0---0---------------|
A|--2---x----------------------3---------2--------0----------|
E|--3---x-----------------------------------------2----------|

[Verse 1]
    Ziggy...    Jammin good...      And the spiders...
E|--3~--------2--x--2\1/2---5------------------------------------|
G|--3~--------3--x--3\2/3---6------------------------------------|
B|--0~-----------------------------------------------------------|
D|--0~-----------------------------------------------------------|
A|--2~------------------------------3-2-3-4-5-/7-5--3-0----------|
E|--3~---------------------------------------------------3-------|

   But made it...                                Then we were...
E|-----------------------<12>----<7>----<12>--------------------|
G|--------------------------------------------------------------|
B|----------------------------------------------------------5---|
D|----------------------------------------------------------5---|
A|--------3-------------------------------------------0-0-2-3---|
E|--2--3--------------------------------------------0-----------|

 Ziggy really...  Screwed up... Screwed down...
E|--3~------------2~------------0~------------------------------|
G|--3~------------3~------------1~------------------------------|
B|--0~------------4~------------0~------------------------------|
D|--0~------------4~------------2~------------------------------|
A|--2~------------2~------------3~------------------------------|
E|--3~------------x-------------0~------------------------------|

  Like some cat...
E|-----------------------------------------------<12>-----------|
G|------------------------------------------------------<12>----|
B|--------------------------------------------------------------|
D|--------------------------------------------------------------|
A|--3-2-3-4-5--/7-5--3-0----------------------------------------|
E|------------------------3-----------------<12>----------------|

      Well hung...
E|-------------------------------------------|
G|-------------------------------------------|
B|----------------5--------------------------|
D|----------------5--------------------------|
A|----------0-0-2-3--------------------------|
E|--0-----0----------------------------------|

[Chorus]
     So where were...
E|-----------------------------------------|
G|-----------------------------------------|
B|-----------------------------------------|
D|--77777---55555---33333333333333--5------| (x 3)
A|--77777---55555---33333333333333--5------|
E|--55555---33333---11001100110011--3------|

[Post-Chorus]
 So we bitched...               crush his sweet...
E|--2--2--xx--2--2-2--2---------0--------------------|
G|--3--3--xx--3--3-3--3---------2--------------------|
B|--2--2--xx--3--2-2--2---------2-(x12)--------------|
D|--0--0--xx--0--0-0--0---------2--------------------|
A|------------------------------0--------------------|
E|------------------------------x--------------------|

[Intro]
E|--3---x-----2h3-2h3--2-------------------------------------|
G|--3---x-----3---3----3--3-------3--3-----3--3-----3--------|
B|--0---x-----2---2----2--2--------0--0-----0--0-----0-------|(x2)
D|--0---x-----------------0----2----2----0---0---------------|
A|--2---x----------------------3---------2--------0----------|
E|--3---x-----------------------------------------2----------|

[Verse 2]
    Ziggy...   Jiving us...
E|--3~---------2~----2x--0~------------------|
G|--3~---------3~----3x--2~------------------|
B|--0~---------------------------------------|
D|--0~---------------------------------------|
A|--2~---------------------------------------|
E|--3~---------------------------------------|

   The kids were just...         With god...
E|-------------------------------------------|
G|-------------------------------------------|
B|-------------------------------------------|
D|-------------------------------------------|
A|--3-2-3-4-5--/7-5--3-0----------------3----|
E|------------------------3-------2--3-------|

    He took...  But boy could....
E|--0-----------------------------------------------|
G|--1-----------------------------------------------|
B|--2-------------------5---------------------------|
D|--2-------------------5---------------------------|
A|--0-------------0-0-2-3---------------------------|
E|--0-----------0-----------------------------------|

[Chorus]
     So where were...
E|-----------------------------------------|
G|-----------------------------------------|
B|-----------------------------------------|
D|--77777---55555---33333333333333--5------| (x 3)
A|--77777---55555---33333333333333--5------|
E|--55555---33333---11001100110011--3------|

[Post-Chorus]
 So we bitched...               crush his sweet...
E|--2--2--xx--2--2-2--2---------0--------------------|
G|--3--3--xx--3--3-3--3---------2--------------------|
B|--2--2--xx--3--2-2--2---------2-(x12)--------------|
D|--0--0--xx--0--0-0--0---------2--------------------|
A|------------------------------0--------------------|
E|------------------------------x--------------------|

[INTRO] x4 (ON THE FOURTH TIME JUST PLAY UP UNTIL THE 2h3 2h3 2 )
                                                      3   3   3
                                                      2   2   2

[Outro]
    Ziggy played guitar
E|--3~------------3~------------------|
G|--3~------------3~------------------|
B|--0~------------0~------------------|
D|--2~------------0~------------------|
A|--3~------------2~------------------|
E|--x-------------3~------------------|

************************************

| x  Dead note
| h  Hammer-on
| /  Slide up
| \  Slide down
| ~  Vibrato

************************************

Thats the end of it... please point out my errors... I know there are some.

This is my first tab by the way.
So please dont judge to harshly

[LYRICS]
Ziggy played guitar, Jammin good with Weird and Gilly
And the spiders from Mars
He played it left hand
But made it too far
Became the special man, then we were Ziggy's band

Ziggy really sang, screwed up eyes and screwed down hairdo
Like some cat from Japan, he could lick 'em by smiling
He could leave 'em to hang
He came so loaded man, well hung and snow white tan

So where were the Spiders, while the fly tried to break our balls?
Just the beer light to guide us,
So we bitched about his fans and should we crush his sweet hands?

Ziggy played for time, jiving us that we were vodoo
The kids were just crass, he was the nazz
With God-given ass
He took it all too far, but boy could he play guitar

Making love with his ego, Ziggy sucked up into his mind
Like a leper messiah
When the kids had killed the man, I had to break up the band
Ziggy played guitar

That took some time...
Tell me how it is please

            
            
Suggest correction
Creating personal tab
Creating personal tab
You can edit any tab online and save it as your Personal.

You can edit, replace or remove any tab part or add personal notes – all changes will be seen only by you.

Personal tabs can be accessed anytime from any device, even offline.
Learn more »
comments
print report bad tab
1 comment total.
+1 reply
fastfourier 10 Feb 19, 2012 06:52 AM

EADBGE isn't standard tuning!

guest
You may want to rate the tab now too:
select rating
Wanna post a correction for this tab? Suggest correction