Oops, an error
Loading. Please wait.

How Can I Be Sure bass

91 views 1 this week
no commentswrite comment
1 2 3 4 5
3 more votes to show rating
add to favorites
×
Save as Personal and add changes to this tab that will be seen only by you. Learn more ›
×
You can save this tab as Personal to edit and correct it or add notes. All changes will be seen only by you. Learn more »
launch autoscroll
font size
0
reset
guitar tuner
edit
Autoscroll
slow
fast
+/-
esc
set tempo
stop
Author
Difficulty
Tabbed by: 6METAL6BASSIST6
E-mail: petergriffinav@gmail.com

Tuning: EADG

0:12

G|------------17----|
D|------17----------|
A|15----------------|
E|------------------|

G|15----------------------------------------------------17----------------|
D|------------------------------------------------------------17----------|
A|------------------------------------------------------------------15----|
E|------------------------------------------------------------------------|

G|15----------------------------------------------------------------17----|
D|------------------------------------------------------------17----------|
A|------------------------------------------------------15----------------|
E|------------------------------------------------------------------------|

G|15----------------14----------------|
D|------------------------------------|
A|------------------------------------|
E|------------------------------------|

G|17----------------------------------------------------------------------|
D|------------------------------------------------------------------------|
A|------------------------------------------------------------------------|
E|------------------------------------------------------------------------|

0:29

G|------------5-----4-----------------3-----------------2-----------------|
D|------------------------------------------------------------------------|
A|3-----------------------------------------------------------------------|
E|------------------------------------------------------------------------|

G|------------------------------------------------------------------------|
D|------------------5-----------------------------------------------5-----|
A|5-----------------------------------5-----------------------------------|
E|------------------------------------------------------3-----------------|

G|------------5-----4-----------------3-----------------2-----------------|
D|------------------------------------------------------------------------|
A|3-----------------------------------------------------------------------|
E|------------------------------------------------------------------------|

G|------------------------------------------------------------------------|
D|------------3---4-5-----------------------------------------5-----3-----|
A|5-----------------------------------5-----------------------------------|
E|------------------------------------------------------3-----------------|

0:45

G|------------------------------------------------------------------------|
D|2-----------------------------------------------------------------------|
A|------------------------------------5-----------------------------------|
E|------------------5-----------------------------------3-----------1-----|

G|------------------------------------------------------------------------|
D|------------------------------------------------------5-----------3-----|
A|------------------------------------5-----------------------------------|
E|0-----------------5-----------------------------------------------------|

G|------------------------------------------------------------------------|
D|1-----------------------------------3-----------------------------------|
A|------------------3-----------------------------------1-----------------|
E|------------------------------------------------------------------------|

G|------------------------------------------------------------------------|
D|------------------------------------------------------------------------|
A|3-----------------------------------------------------------------------|
E|------------------------------------------------------------------------|

1:03

G|------------5-----4-----------------3-----------------2-----------------|
D|------------------------------------------------------------------------|
A|3-----------------------------------------------------------------------|
E|------------------------------------------------------------------------|

G|------------------------------------------------------------------------|
D|------------3---4-5-----------------------------------------------5-----|
A|5-----------------------------------5-----------5-----------------------|
E|------------------------------------------------------3-----------------|

G|------------5-----4-----------------3-----------------2-----------------|
D|------------------------------------------------------------------------|
A|3-----------------------------------------------------------------------|
E|------------------------------------------------------------------------|

G|------------------------------------------------------------------------|
D|------------3---4-5-----------------------------------------5-----3-----|
A|5-----------------------------------5-----------------------------------|
E|------------------------------------------------------3-----------------|

1:19

G|------------------------------------------------------------------------|
D|2-----------------------------------------------------------------------|
A|------------------------------------5-----------------------------------|
E|------------------5-----------------------------------3-----------1-----|

G|------------------------------------------------------------------------|
D|------------------------------------------------------5-----------3-----|
A|------------------------------------5-----------------------------------|
E|0-----------------5-----------------------------------------------------|

G|------------------------------------------------------------------------|
D|1-----------------------------------3-----------------------------------| x2
A|------------------3-----------------------------------1-----------------|
E|------------------------------------------------------------------------|

G|------------------------------------------------------------------------|
D|------------------------------------------------------------------------|
A|3-----------------------------------------------------------------------|
E|------------------------------------------------------------------------|

1:40

G|------------------------------------------------------------------------|
D|------------------------------------------------------------------------| x3
A|3-----3-----3-----3-----3-----3-----3-----3-----3-----3-----3-----3-----|
E|------------------------------------------------------------------------|

G|------------------------------------------------------------------------|
D|------------------------------------------------------------------------|
A|3-----3-----3-----3-----3-----3-----3-----3-----3-----3-----------3---5-|
E|------------------------------------------------------------5-----------|

1:53

G|------------------------------------------------------------------------|
D|2-----------------------------------------------------5-----------3-----| x2
A|------------------------------------5-----------------------------------|
E|------------------5-----------------------------------------------------|

G|------------------------------------------------------------------3-----|
D|1-----------------------------------3-----------------------------------|
A|------------------3-----------------------------------1-----------------|
E|------------------------------------------------------------------------|

G|------------------------------------------------------------------------|
D|1-----------------------------------3-----------------------------------|
A|------------------3-----------------------------------1-----------------|
E|------------------------------------------------------------------------|

G|------------------------------------------------------------------------|
D|------------------------------------------------------------------------|
A|3-----------------------------------------------------------------------|
E|------------------------------------------------------------------------|

2:14

G|------------------------------------------------------------------17----|
D|------------------------------------------------------------17----------|
A|------------------------------------------------------15----------------|
E|------------------------------------------------------------------------|

G|15----------------------------------------------------17----------------|
D|------------------------------------------------------------------------|
A|------------------------------------------------------------------15----|
E|------------------------------------------------------------------------|

G|15----------------------------------------------------------------17----|
D|------------------------------------------------------------17----------|
A|------------------------------------------------------15----------------|
E|------------------------------------------------------------------------|

G|15----------------------------------------------------17----------------|
D|------------------------------------------------------------17----------|
A|------------------------------------------------------------------15----|
E|------------------------------------------------------------------------|

2:31

G|------------5-----4-----------------3-----------------2-----------------|
D|------------------------------------------------------------------------|
A|3-----------------------------------------------------------------------|
E|------------------------------------------------------------------------|

G|------------------------------------------------------------------------|
D|------------3---4-5-----------------------------------------------5-----|
A|5-----------------------------------5-----------5-----------------------|
E|------------------------------------------------------3-----------------|

G|------------5-----4-----------------3-----------------2-----------------|
D|------------------------------------------------------------------------|
A|3-----------------------------------------------------------------------|
E|------------------------------------------------------------------------|

G|------------------------------------------------------------------------|
D|----------------5-------------------------------------------------5-----|
A|5-----------------------------------5-----------5-----------------------|
E|------------------------------------------------------3-----------------|

2:48

G|------------5-----4-----------------3-----------------2-----------------|
D|----------5-------------------------------------------------------------|
A|3-----------------------------------------------------------------------|
E|------------------------------------------------------------------------|

G|---------------------------------------------------------------------------|
D|------------------5--------------------------------------------------5-----|
A|5-----------5-----------------------5---5-------5---5----------------------|
E|----------------------------------------------------------3----------------|

G|------------5-----4-----------------3-----------------2-----------------|
D|------------------------------------------------------------------------|
A|3-----------------------------------------------------------------------|
E|------------------------------------------------------------------------|

G|------------------------------------------------------------------------|
D|------------3-----5-----------------------------------------------------|
A|5-----------------------------------5-----------------------------------|
E|------------------------------------------------------3-----------------|

            
            
Suggest correction
Creating personal tab
Creating personal tab
You can edit any tab online and save it as your Personal.

You can edit, replace or remove any tab part or add personal notes – all changes will be seen only by you.

Personal tabs can be accessed anytime from any device, even offline.
Learn more »
Give kudos to tab author, rate the tab!
1 2 3 4 5
comments
print report bad tab
guest
You may want to rate the tab now too:
select rating
Wanna post a correction for this tab? Suggest correction