Oops, an error
Loading. Please wait.

So Weightless tab

3,153 views 12 this week
no commentswrite comment
1 2 3 4 5
3 more votes to show rating
add to favorites
×
Save as Personal and add changes to this tab that will be seen only by you. Learn more ›
×
You can save this tab as Personal to edit and correct it or add notes. All changes will be seen only by you. Learn more »
launch autoscroll
font size
0
reset
how to read this tab
guitar tuner
edit
Autoscroll
slow
fast
+/-
esc
set tempo
stop
Author
-----------------------------------------------------------------------------
                             So Weightless - David Choi
-----------------------------------------------------------------------------
Tabbed by: Waka Flocka Flame
Email:
Tuning: Standard

I'm 99% that this tab is 100%, haha! Leave comments for questions or corrections. Thanks!

Intro:
e|-----4-----0-----0-----0-----0-----0-----0-----0-----0-----|
B|-----0-----5-----4-----3-----2-----1-----0-----2-----4-----|
G|-----6-----5-----4-----3-----2-----2-----1-----2-----4-----|
D|-----6-----5-----4-----3-----2-----2-----2-----2-----4-----|
A|-----0-----x-----x-----x-----x-----x-----2-----x-----x-----|
E|-----x-----5-----4-----3-----2-----1-----0-----2-----4-----|

Verse: 
 Play 2x
e|-----4-----0-----0-----0-----0-----0-----0-----0-----0-----|
B|-----0-----5-----4-----3-----2-----1-----0-----2-----4-----|
G|-----6-----5-----4-----3-----2-----2-----1-----2-----4-----|
D|-----6-----5-----4-----3-----2-----2-----2-----2-----4-----|
A|-----0-----x-----x-----x-----x-----x-----2-----x-----x-----|
E|-----x-----5-----4-----3-----2-----1-----0-----2-----4-----|

Pre-Chorus:
e|-----0-----0-----0-----0-----0-----x-----0-----x-----|
B|-----7-----7-----5-----5-----4-----3-----2-----0-----|
G|-----7-----7-----5-----5-----4-----4-----2-----2-----|
D|-----7-----6-----5-----4-----4-----3-----2-----1-----|
A|-----x-----7-----x-----5-----x-----4-----x-----2-----|
E|-----7-----0-----5-----0-----4-----x-----2-----x-----|

Chorus:
 Play 2X
e|-----0-----0-----0-----0-----0-----|
B|-----0-----7-----7-----5-----5-----|
G|-----8-----7-----7-----5-----5-----|
D|-----9-----7-----6-----5-----4-----|
A|-----7-----x-----7-----x-----5-----|
E|-----0-----7-----0-----5-----0-----|

Verse: 
 Play 2X
e|-----4-----0-----0-----0-----0-----0-----0-----0-----0-----|
B|-----0-----5-----4-----3-----2-----1-----0-----2-----4-----|
G|-----6-----5-----4-----3-----2-----2-----1-----2-----4-----|
D|-----6-----5-----4-----3-----2-----2-----2-----2-----4-----|
A|-----0-----x-----x-----x-----x-----x-----2-----x-----x-----|
E|-----x-----5-----4-----3-----2-----1-----0-----2-----4-----|

Pre-Chorus:
e|-----0-----0-----0-----0-----0-----x-----0-----x-----|
B|-----7-----7-----5-----5-----4-----3-----2-----0-----|
G|-----7-----7-----5-----5-----4-----4-----2-----2-----|
D|-----7-----6-----5-----4-----4-----3-----2-----1-----|
A|-----x-----7-----x-----5-----x-----4-----x-----2-----|
E|-----7-----0-----5-----0-----4-----x-----2-----x-----|

Chorus:
 Play 2X
e|-----0-----0-----0-----0-----0-----|
B|-----0-----7-----7-----5-----5-----|
G|-----8-----7-----7-----5-----5-----|
D|-----9-----7-----6-----5-----4-----|
A|-----7-----x-----7-----x-----5-----|
E|-----0-----7-----0-----5-----0-----|

Bridge:
 Play 3X
e|-----0-----0-----|
B|-----5-----5-----|
G|-----5-----5-----|
D|-----5-----4-----|
A|-----x-----5-----|
E|-----5-----0-----|

Chorus:
 Play 2X
e|-----0-----0-----0-----0-----0-----|
B|-----0-----7-----7-----5-----5-----|
G|-----8-----7-----7-----5-----5-----|
D|-----9-----7-----6-----5-----4-----|
A|-----7-----x-----7-----x-----5-----|
E|-----0-----7-----0-----5-----0-----|

Outro:
 Play 5X, fade on 5th
e|-----0-----0-----|
B|-----0-----7-----|
G|-----8-----7-----|
D|-----9-----7-----|
A|-----7-----x-----|
E|-----0-----7-----|

-----------------------------------------------------------------------------

"So Weightless" - David Choi

Verse 1:
I only know, not everyone sees
Something there beyond the breeze
A lioness stare, blond wavy hair
Beautiful, so hard not to care

Pre-Chorus 1:
Every move I make, gets closer to you
Reach your hand out
Should I grab or should I go

Chorus:
I’m feeling so weightless
I don’t know what
I don’t know how
I ended up in this cloud
I’m feeling so helpless
I don’t know when
I don’t know how
I’m ever gonna get down

Verse 2:
I got a question can I stay for a while?
I’m liking it here but am I on file?
I just want to talk, but you seem so far
Fading away, just like a star

Pre-Chorus 2:
Before you could answer
You’ve drifted away
Left me here alone, but right now I’m feeling ok

Chorus:
I’m feeling so weightless
I don’t know what
I don’t know how
I ended up in this cloud
I’m feeling so helpless
I don’t know when
I don’t know how
I’m ever gonna get down

Bridge:
Before I know it I can’t help but wonder
My friends are waiting for me but if I could just stay here
So caught up in bliss, where is my answer?

Chorus:
I’m feeling so weightless
I don’t know what
I don’t know how
I ended up in this cloud
I’m feeling so helpless
I don’t know when
I don’t know how
I’m ever gonna get down

Outro:
Feelin' so weightless… Feelin' so weightless… 

************************************

| /   slide up
| \   slide down
| h   hammer-on
| p   pull-off
| ~   vibrato
| +   harmonic
| x   Mute note
| b   Bend
| pb  Pre-bend
| br  Bend release
| pbr Pre-bend release
| brb Bend release bend

************************************
Suggest correction
Creating personal tab
Creating personal tab
You can edit any tab online and save it as your Personal.

You can edit, replace or remove any tab part or add personal notes – all changes will be seen only by you.

Personal tabs can be accessed anytime from any device, even offline.
Learn more »
Give kudos to tab author, rate the tab!
1 2 3 4 5
comments
print report bad tab
guest
You may want to rate the tab now too:
select rating
Wanna post a correction for this tab? Suggest correction