Oops, an error
Loading. Please wait.

Wont Even Start Chords

version 3
version 3
27,107 views 18 this week
2 commentsread comments
1 2 3 4 5
accurate
x 3
add to favorites
launch autoscroll
font size
0
reset
transpose
0
reset
simplify chords
display chords
guitar tuner
Autoscroll
slow
fast
+/-
esc
set tempo
stop
Help us to improve Ultimate-Guitar.com Take our survey!
×
Author
David Choi's song "Won't Even Start" great and easy song to play. I'm 90% sure the 
are correct, comment if wrong but here it goes. Although there is one chord that i cant seem 
figure out i will label as UK for Unknown Chord.


Chords (in order)

e |--0-----0-----0-----x------0------0------0-------0------0-----|
B |--0-----0-----0-----x------0------0------0-------0------5-----|
G |--9-----9-----6-----4------2------4------4-------2------6-----|
D |--9-----9-----7-----4--to--2------4------6-------4------6-----|
A |--7-----x-----7-----x------x------2------6-------4------x-----|
E |--0-----9-----5-----4------2------0------0-------0------6-----|
     E    C#m    A     G#    Esus    B     G#m     F#m     UK
                          ^
                     Short transaction
                     between "up" and "in"

This is how i play in the Verses

e |--0------0------0------x-----------0-------0------------------|
B |--0------0------0------x-----------0-------0------------------|
G |--9------9------6------4---Trans---2-------4----To Chorus-----|
D |--9------9------7------4----to-----2-------4------------------|
A |--7------x------7------x-----------x-------2------------------|
E |--0------9------5------4-----------2-------0------------------|
     E     C#m     A      G#         Esus     B

And this is how i play the Chorus

e |--0------0-------0------0------0-----------------0------------|
B |--0------0-------5------2------0-----------------0------------|
G |--9------9-------6------2------4-----Repeat------6------------|
D |--9------9-------6------0------4------And--------6------------|
A |--7------x-------x------0------2------Play-------4------------|
E |--0------9-------6------0------0-----After B-----0------------|
     E     C#m      UK     A      B                C#m

And then the E transition from the chorus goes like. Just hold your ringer finger on the 
fret G string, and let go of your pinky.

e |--0------0--|
B |--0------0--|
G |--9--To--8--|
D |--9------9--|
A |--7------7--|
E |--0------0--|


Wont Even Start

E
What happened
C#m
after last summer
A                G#  <--Short transaction
when we broke up          right here
Esus   B
in September

E
I havent seen you
C#m
Feels like a long time
A                       G#
Sometimes it still hurts
Esus         B
But I always get by

G#m                    F#m
I still got a piece of you under my skin
G#m                        B (let ring)
Its always there no matter where Ive been

E
So if I ever see you on the street
C#m
Ill pretend that I didnt see
  UK
And turn my face
          A             B
No use in small talk anyways

E
Because if I look into your eyes
C#m
Then Ill have to say goodbye
    UK
And thatll break my heart
   A      B    C#m
So I wont even start
A      B    E (going into 2nd verse)
I wont even start

E
I wish you luck
C#m
And I wish it true
A                G#
Thats the best I
Esus        B
Can do for you

E
Cuz youll probably find love
C#m
In someone new
A               G#
I have to let go
Esus             B
Yeah its hard to do

G#m                    F#m
So if I run into you with your arm by his side
G#m                    B
Just know itll cut me like a knife

Chorus
Suggest correction
What's this?
You can suggest a correction to this tab. Community and Mods will review your correction and vote to approve or reject it.
comments
We did not receive enough feedback on this tab! Please rate:
print report bad tab
1 2 3 4 5
2 comments total.
0 reply
IRJoshKim 35 wrote on May 14 2009, 04:34 pm

Sorry for the part that talks about the transition from E to verse 2 You play the E and let go of your Ring Finger which is on G string 8th fret

0 reply
sansa90 11 wrote on August 22 2009, 08:37 pm

is it fmaj11?

guest
You may want to rate the tab now too:
select rating
Please do not post tabs as comments. Select "correction" instead!